Oops, an error
Loading. Please wait.

American Woman Tab

8,864 views 603 this week
1 commentread comment
1 2 3 4 5
excellent!
x 6
add to favorites
launch autoscroll
font size
0
reset
how to read this tab
guitar tuner
Tab Pro tools
  • play this tab
  • loop segment
  • change instrument
  • show fretboard
  • metronome
×
Best way to learn
"American Woman"
Autoscroll
slow
fast
+/-
esc
set tempo
stop
Contributor
Difficulty
intermediate
The Guess Who - American Woman

tabbed by Andreas Schwarz


INTRO/VERSE (played by a 2nd guitar):

e|---------------------------------------------------|
B|-4-7--7-9-9-9-9--7-9-9-9------4-7--7-9-9-9-9--7-9--|
G|-4-7--7-9-9-9-9--7-9-9-9------4-7--7-9-9-9-9--7-9--| x2
D|-4-7--7-9-9-9-9--7-9-9-9------4-7--7-9-9-9-9--7-9--|
A|-2-5--5-7-7-7-7--5-7-7-7------2-5--5-7-7-7-7--5-7--|
E|---------------------------------------------------|

INTRO SOLO:

e|------------------------------------16--------------|
B|-------------------12---15------------13-14/15------|
G|-9-11-11/13---13/14---------12/13-------------------|
D|--------------------------14------------------------|
A|----------------------------------------------------|
E|----------------------------------------------------|

MAIN-SOLO:

e|---------------------------------------------------|
B|---------------------------------------------------|
G|-11b12-(12)-11b12~--------11b12r11p9-11-9~---------|
D|---------------------------------------------------|
A|---------------------------------------------------|
E|---------------------------------------------------|

e|---------------------------------------------------|
B|---------------------------------------------------|
G|-14b16~-------------------14b16r14p12-14-12b13-----|
D|---------------------------------------------------|
A|---------------------------------------------------|
E|---------------------------------------------------|

e|---------------------------------------------------|
B|-14b16~--16--------------14b15-(x5)--15------------|
G|--------------12h13----------------------12h13-----|
D|-----------14--------------------------14----------|
A|---------------------------------------------------|
E|---------------------------------------------------|

e|------------------------------------15-17-17b19-17b19-|
B|-(15)h16-17-(15)h17-17-15h17~~-17-17------------------|
G|------------------------------------------------------|
D|------------------------------------------------------|
A|------------------------------------------------------|
E|------------------------------------------------------|

e|-r17-15-17-15b16-----------------------------------------|
B|-----------------17~---15h17p15-14-12--------------------|
G|--------------------------------------14b16~-14b16-14b16-|
D|---------------------------------------------------------|
A|---------------------------------------------------------|
E|---------------------------------------------------------|

e|------------------------------------------------------------|
B|-12-14-14b15r14p12-14--12~--12-14-14b15-(15)r14p12-14-14/17-|
G|---------------------13-------------------------------------|
D|------------------------------------------------------------|
A|------------------------------------------------------------|
E|------------------------------------------------------------|

BRIDGE

e|-----------------------|
B|-4-7--7-9-9-9-9--7-9\--|
G|-4-7--7-9-9-9-9--7-9\--| x4
D|-4-7--7-9-9-9-9--7-9\--|
A|-2-5--5-7-7-7-7--5-7\--|
E|-----------------------|

OUTRO SOLO:

e|----------------------------12-14-14b15r14-14-12~--|
B|-14b15r14p12-14-12~---12-14------------------------|
G|---------------------------------------------------|
D|---------------------------------------------------|
A|---------------------------------------------------|
E|---------------------------------------------------|

e|----------------------------|--12--------------|
B|-12-14-14b15r14p12-14-12~---|------------------|
G|----------------------------|----12b13----(x4)-|
D|----------------------------|----------14------|
A|----------------------------|------------------|
E|----------------------------|------------------|

e|-15--------------15--------------15----------------------|
B|----12-14-14b15-----12-14-14b15-----14b15r14p12-14-12----|
G|---------------------------------------------------------|
D|---------------------------------------------------------|
A|---------------------------------------------------------|
E|---------------------------------------------------------|

e|--------------------15b16---------19-19b21r19--17h19p17-16-|
B|-12-14b15r14p12-14--------14b15----------------------------|
G|-----------------------------------------------------------|
D|-----------------------------------------------------------|
A|-----------------------------------------------------------|
E|-----------------------------------------------------------|

e|-19----16h17-16------------------------------------|
B|----17----------/19-17-----------------------------|
G|---------------------------------------------------|
D|---------------------------------------------------|
A|---------------------------------------------------|
E|---------------------------------------------------|


Intro
Intro Solo

Verse
Intro Solo

Verse
Intro Solo

Main-Solo

Bridge
Verse

Outro Solo
comments
print report bad tab
1 comment total.
+1 reply
bklynch.connect wrote on March 29 2016, 09:05 pm

Awesome, but where's the actual intro?

I want to post or [tab]
guest
You may want to rate the tab now too:
select rating
Please do not post tabs as comments. Select "correction" instead!