Oops, an error
Loading. Please wait.

No Time Tab

2,662 views 27 this week
no commentswrite comment
1 2 3 4 5
1 last vote to show rating
add to favorites
launch autoscroll
font size
0
reset
how to read this tab
guitar tuner
×
Best way to learn
"No Time"
Autoscroll
slow
fast
+/-
esc
set tempo
stop
Author
Difficulty
  follow
intermediate
NO TIME

As recorded by The Guess Who
(From the 1969 Album CANNED WHEAT)

Words and Music by Randy Bachman & Burton Cummings

Transcribed by Slowhand 


Gtr I (E A D G B E) - 'Electric Guitar'
Gtr II (E A D G B E) - 'Electric Guitar'
Gtr III (E A D G B E) - 'Acoustic Guitar'
Gtr IV (E A D G B E) - 'Electric Guitar'



                Intro & Interlude
  Q=132
                 D5                  Fmaj7
 4/4
  Gtr I (El. Gtr. w/ dist.)
                                 ~~~~~~~~
  Wx2             Q  E E E Q   a E   +W
|------------||--------------------|-----------------|
|------------||o-------------------|-----------------|
|------------||--------------------|-----------------|
|------------||------------2---2s3-|-(3)-------------|
|------------||o--5--5-5-5---------|-----------------|
|------------||--------------------|-----------------|
|
| Gtr II (El. Gtr.)
| Wx2             W                   W
|------------||--------------------|-^0--------------|
|------------||o-^3----------------|-^1--------------|
|------------||--^2----------------|-^2--------------|
|------------||--^0----------------|-^3--------------|
|------------||o-------------------|-----------------|
|------------||--------------------|-----------------|
|
| Gtr III (Ac. Gtr.)
| Wx2             Q  E E E E E   E    Q   Q  E E E E
|------------||--------------------|--0---0--0-0-0-0-|
|------------||o--3--3-3-3-3-3---3-|--1---1--1-1-1-1-|
|------------||---2--2-2-2-2-2---2-|--2---2--2-2-2-2-|
|------------||---0--0-0-0-0-0---0-|--3---3--3-3-3-3-|
|------------||o-------------------|-----------------|
|------------||--------------------|-----------------|


    G5                D5
                  ~~~~~~~~~~~~~~~~~~~~~~
  a  Q  E E E Q   E   +H.           +E  E    E E E E E E    +Q
|-------------------|---------------------|------------------------|
|-------------------|---------------------|------------------------|
|-------------------|---------------------|----------5-7b9==(7)----|
|-3s=5--5-5-5h7\----|---------------------|----3-5s7---------------|
|-----------------5-|-(5)-----------(5)-3-|--5---------------------|
|-------------------|---------------------|------------------------|
|
|    W                 W                     W
|-------------------|---------------------|------------------------|
|---^3--------------|-^3------------------|-^3---------------------|
|---^4--------------|-^2------------------|-^2---------------------|
|---^5--------------|-^0------------------|-^0---------------------|
|-------------------|---------------------|------------------------|
|-------------------|---------------------|------------------------|
|
|    Q  E E E Q   E    E  E E E E E  E  E    Q   E E E E     E  E
|----3--3-3-3-3---3-|--2--2-2-2-2-2--2--2-|------------------------|
|----3--3-3-3-3---3-|--3--3-3-3-3-3--3--3-|--3---3-3-3-3-----3--3--|
|----0--0-0-0-0---0-|--2--2-2-2-2-2--2--2-|--2---2-2-2-2-----2--2--|
|----0--0-0-0-0---0-|--0--0-0-0-0-0--0--0-|--0---0-0-0-0-----0--0--|
|-------------------|---------------------|------------------------|
|----3--3-3-3-3---3-|---------------------|------------------------|


  Fmaj7                       G5
   ~~~~
           |----3-----|
  +H       E    +E    E E E    Q.    E E Q  S S
|---------------------------|-------------------|
|---------------------------|-------------------|
|-(7)r-----7pb9r(7)p==5---5h|==7-----5----------|
|-----------------------7---|----------5-3------|
|---------------------------|---------------5p3h|
|---------------------------|-------------------|
|
|  W                           W
|-^0------------------------|-------------------|
|-^1------------------------|-^3----------------|
|-^2------------------------|-^4----------------|
|-^3------------------------|-^5----------------|
|---------------------------|-------------------|
|---------------------------|-------------------|
|
|  Q    Q  E        E   E E    Q   E E E Q  E
|--0----0--0--------0---0-0-|--3---3-3-3-3--3---|
|--1----1--1--------1---1-1-|--3---3-3-3-3--3---|
|--2----2--2--------2---2-2-|--0---0-0-0-0--0---|
|--3----3--3--------3---3-3-|--0---0-0-0-0--0---|
|---------------------------|-------------------|
|---------------------------|--3---3-3-3-3--3---|


                      1st & 2nd Verses
  D5                   D5
   ~~~
   H.           Q       W
|-------------------||------------------|
|-------------------||------------------|
|-------------------||------------------|
|-------------------||------------------|
|--5----------------||------------------|
|-------------------||------------------|
|
|  W                    W
|-------------------||------------------|
|-^3----------------||-^3---------------|
|-^2----------------||-^2---------------|
|-^0----------------||-^0---------------|
|-------------------||------------------|
|-------------------||------------------|
|
|  E  E E E E E E E     Q  E E E E E E
|--2--2-2-2-2-2-2-2-||------------------|
|--3--3-3-3-3-3-3-3-||--3--3-3-3-3-3-3--|
|--2--2-2-2-2-2-2-2-||--2--2-2-2-2-2-2--|
|--0--0-0-0-0-0-0-0-||--0--0-0-0-0-0-0--|
|-------------------||------------------|
|-------------------||------------------|


  Fmaj7            G5               D5
  Gtr II
   W                W                W                  W
|-^0-------------|----------------|------------------|-----------------|
|-^1-------------|-^3-------------|-^3---------------|-^3--------------|
|-^2-------------|-^4-------------|-^2---------------|-^2--------------|
|-^3-------------|-^5-------------|-^0---------------|-^0--------------|
|----------------|----------------|------------------|-----------------|
|----------------|----------------|------------------|-----------------|
|
| Gtr III
|  Q  Q  E E E E    Q  E E E Q  E    E E E E E E E E    Q  E E E E E E
|--0--0--0-0-0-0-|--3--3-3-3-3--3-|--2-2-2-2-2-2-2-2-|-----------------|
|--1--1--1-1-1-1-|--3--3-3-3-3--3-|--3-3-3-3-3-3-3-3-|--3--3-3-3-3-3-3-|
|--2--2--2-2-2-2-|--0--0-0-0-0--0-|--2-2-2-2-2-2-2-2-|--2--2-2-2-2-2-2-|
|--3--3--3-3-3-3-|--0--0-0-0-0--0-|--0-0-0-0-0-0-0-0-|--0--0-0-0-0-0-0-|
|----------------|----------------|------------------|-----------------|
|----------------|--3--3-3-3-3--3-|------------------|-----------------|


  Fmaj7            G5               D5
   W                W                W          +W
|-^0-------------|----------------|-----------|--------||
|-^1-------------|-^3-------------|-^3--------|-(3)----||
|-^2-------------|-^4-------------|-^2--------|-(2)----||
|-^3-------------|-^5-------------|-^0--------|-(0)----||
|----------------|----------------|-----------|--------||
|----------------|----------------|-----------|--------||
|
|  Q  Q  E E E E    Q  E E E Q  E    W          +W
|--0--0--0-0-0-0-|--3--3-3-3-3--3-|--2--------|-(2)----||
|--1--1--1-1-1-1-|--3--3-3-3-3--3-|--3--------|-(3)----||
|--2--2--2-2-2-2-|--0--0-0-0-0--0-|--2--------|-(2)----||
|--3--3--3-3-3-3-|--0--0-0-0-0--0-|--0--------|-(0)----||
|----------------|----------------|-----------|--------||
|----------------|--3--3-3-3-3--3-|-----------|--------||


 Chorus
  $
     G5         D             Am          D
   a  E  Q    E  E  E  E  E   a  E Q    E  E  E  E  E
|-------10------------10----|------8------------10----|
|-10h12------12----10-------|-8h10-----10----10----10-|
|---------------11-------11-|-------------11----------|
|---------------------------|-------------------------|
|---------------------------|-------------------------|
|---------------------------|-------------------------|
|
|     Q    Q     E  E  E  E      E E E  E  E  E  E  E
|-----3----3-----2--2--2--2-|----0-0-0--0--2--2--2--2-|
|-----3----3-----3--3--3--3-|----1-1-1--1--3--3--3--3-|
|-----0----0-----2--2--2--2-|----2-2-2--2--2--2--2--2-|
|-----0----0-----0--0--0--0-|----2-2-2--2--0--0--0--0-|
|---------------------------|----0-0-0--0-------------|
|-----3----3----------------|-------------------------|


  G5               D          Am          D
   a  E  Q    E  E  E  E  E   a  E Q    E  E  E  E  E
|-------10------------10----|------8------------10----|
|-10h12------12----10-------|-8h10-----10----10----10-|
|---------------11-------11-|-------------11----------|
|---------------------------|-------------------------|
|---------------------------|-------------------------|
|---------------------------|-------------------------|
|
|     Q    Q     E  E  E  E      E E E  E  E  E  E  E
|-----3----3-----2--2--2--2-|----0-0-0--0--2--2--2--2-|
|-----3----3-----3--3--3--3-|----1-1-1--1--3--3--3--3-|
|-----0----0-----2--2--2--2-|----2-2-2--2--2--2--2--2-|
|-----0----0-----0--0--0--0-|----2-2-2--2--0--0--0--0-|
|---------------------------|----0-0-0--0-------------|
|-----3----3----------------|-------------------------|


  G5            D             Am          D
   a  E  Q    E  E  E  E  E   a  E Q    E  E  E  E  E
|-------10------------10----|------8------------10----|
|-10h12------12----10-------|-8h10-----10----10----10-|
|---------------11-------11-|-------------11----------|
|---------------------------|-------------------------|
|---------------------------|-------------------------|
|---------------------------|-------------------------|
|
| Gtr IV (El. Gtr.)
|     W                          W
|---------------------------|-------------------------|
|---------------------------|-------------------------|
|---------------------------|-------------------------|
|---------------------------|-------------------------|
|---------------------------|-------------------------|
|---------------------------|-------------------------|
|
| Gtr III
|     Q    Q     E  E  E  E      E E E  E  E  E  E  E
|-----3----3-----2--2--2--2-|----0-0-0--0--2--2--2--2-|
|-----3----3-----3--3--3--3-|----1-1-1--1--3--3--3--3-|
|-----0----0-----2--2--2--2-|----2-2-2--2--2--2--2--2-|
|-----0----0-----0--0--0--0-|----2-2-2--2--0--0--0--0-|
|---------------------------|----0-0-0--0-------------|
|-----3----3----------------|-------------------------|


  C                Bm
                          |---3---|
  W                H      Q     Q Q
|----------------|------------------|
|----------------|------------------|
|----------------|--------4-----6-7-|
|----------------|------------------|
|----------------|------------------|
|----------------|------------------|
|
|                         |---3---|
| W                H      Q     Q Q
|----------------|------------------|
|----------------|--------3-----5-7-|
|----------------|------------------|
|----------------|------------------|
|----------------|------------------|
|----------------|------------------|
|
| Q  Q  +E  Q.     Q  Q  +E  Q.
|-0--0--(0)-0----|-2--2--(2)-2------|
|-1--1--(1)-1----|-3--3--(3)-3------|
|-0--0--(0)-0----|-4--4--(4)-4------|
|-2--2--(2)-2----|-4--4--(4)-4------|
|-3--3--(3)-3----|-2--2--(2)-2------|
|----------------|------------------|


  C                   Bm                 C                   Bm
                             |---3---|                              |---3---|
  H.            E E   H      Q     Q Q   H.            E E   H      Q     Q Q
|-------------------|------------------|-------------------|------------------|
|-------------------|------------------|-------------------|------------------|
|-9---------------9-|-7------4-----6-7-|-9---------------9-|-7------4-----6-7-|
|-------------------|------------------|-------------------|------------------|
|-------------------|------------------|-------------------|------------------|
|-------------------|------------------|-------------------|------------------|
|
|                            |---3---|                              |---3---|
| H.            E E   H      Q     Q Q   H.            E E   H      Q     Q Q
|-------------------|------------------|-------------------|------------------|
|-8---------------8-|-7------3-----5-7-|-8---------------8-|-7------3-----5-7-|
|-------------------|------------------|-------------------|------------------|
|-------------------|------------------|-------------------|------------------|
|-------------------|------------------|-------------------|------------------|
|-------------------|------------------|-------------------|------------------|
|
| Q   Q  +E  Q.       Q  Q  +E  Q.       Q   Q  +E  Q.       Q  Q  +E  Q.
|-0---0--(0)-0------|-2--2--(2)-2------|-0---0--(0)-0------|-2--2--(2)-2------|
|-1---1--(1)-1------|-3--3--(3)-3------|-1---1--(1)-1------|-3--3--(3)-3------|
|-0---0--(0)-0------|-4--4--(4)-4------|-0---0--(0)-0------|-4--4--(4)-4------|
|-2---2--(2)-2------|-4--4--(4)-4------|-2---2--(2)-2------|-4--4--(4)-4------|
|-3---3--(3)-3------|-2--2--(2)-2------|-3---3--(3)-3------|-2--2--(2)-2------|
|-------------------|------------------|-------------------|------------------|


                                             Interlude
                            To Coda
  C                   Bm                      D5
                                          Gtr I
                                                              ~
  H.            E E   W          W             Q  E E E Q   a E
|-------------------|----------|-----------||--------------------|
|-------------------|----------|----------o||--------------------|
|-9---------------9-|-7--------|-----------||--------------------|
|-------------------|----------|-----------||-----------2---2s3--|
|-------------------|----------|----------o||--5--5-5-5----------|
|-------------------|----------|-----------||--------------------|
|
|                                         Gtr II
| H.            E E   W          W             W
|-------------------|----------|-----------||--------------------|
|-8---------------8-|-7--------|----------o||-^3-----------------|
|-------------------|----------|-----------||-^2-----------------|
|-------------------|----------|-----------||-^0-----------------|
|-------------------|----------|----------o||--------------------|
|-------------------|----------|-----------||--------------------|
|
| Gtr III
| Q   Q  +E  Q.       W          W             Q  E E E E E   E
|-0---0--(0)-0------|-2--------|-----------||--------------------|
|-1---1--(1)-1------|-3--------|----------o||--3--3-3-3-3-3---3--|
|-0---0--(0)-0------|-4--------|-----------||--2--2-2-2-2-2---2--|
|-2---2--(2)-2------|-4--------|-----------||--0--0-0-0-0-0---0--|
|-3---3--(3)-3------|-2--------|----------o||--------------------|
|-------------------|----------|-----------||--------------------|


  Fmaj7               G5
   ~~~                              ~~~
  +W                a  Q  E E E Q   E
|-----------------|-------------------|
|-----------------|-------------------|
|-----------------|-------------------|
|-(3)-------------|-3s=5--5-5-5h7\----|
|-----------------|-----------------5-|
|-----------------|-------------------|
|
|  W                   W
|-^0--------------|-------------------|
|-^1--------------|---^3--------------|
|-^2--------------|---^4--------------|
|-^3--------------|---^5--------------|
|-----------------|-------------------|
|-----------------|-------------------|
|
|  Q   Q  E E E E      Q  E E E Q   E
|--0---0--0-0-0-0-|----3--3-3-3-3---3-|
|--1---1--1-1-1-1-|----3--3-3-3-3---3-|
|--2---2--2-2-2-2-|----0--0-0-0-0---0-|
|--3---3--3-3-3-3-|----0--0-0-0-0---0-|
|-----------------|-------------------|
|-----------------|----3--3-3-3-3---3-|


  D5
 ~~~~~~~~~~~~~~~~~~~
  +H.           +E  E    E E E E E E    +Q
|---------------------|------------------------|
|---------------------|------------------------|
|---------------------|----------5-7b9==(7)----|
|---------------------|----3-5s7---------------|
|-(5)-----------(5)-3-|--5---------------------|
|---------------------|------------------------|
|
|  W                     W
|---------------------|------------------------|
|-^3------------------|-^3---------------------|
|-^2------------------|-^2---------------------|
|-^0------------------|-^0---------------------|
|---------------------|------------------------|
|---------------------|------------------------|
|
|  E  E E E E E  E  E    Q   E E E E     E  E
|--2--2-2-2-2-2--2--2-|------------------------|
|--3--3-3-3-3-3--3--3-|--3---3-3-3-3-----3--3--|
|--2--2-2-2-2-2--2--2-|--2---2-2-2-2-----2--2--|
|--0--0-0-0-0-0--0--0-|--0---0-0-0-0-----0--0--|
|---------------------|------------------------|
|---------------------|------------------------|


  Fmaj7                       G5
   ~~~~
           |----3-----|
  +H       E    +E    E E E    Q.    E E Q  S S
|---------------------------|-------------------|
|---------------------------|-------------------|
|-(7)r-----7pb9r(7)p==5---5h|==7-----5----------|
|-----------------------7---|----------5-3------|
|---------------------------|---------------5p3h|
|---------------------------|-------------------|
|
|  W                           W
|-^0------------------------|-------------------|
|-^1------------------------|-^3----------------|
|-^2------------------------|-^4----------------|
|-^3------------------------|-^5----------------|
|---------------------------|-------------------|
|---------------------------|-------------------|
|
|  Q    Q  E        E   E E    Q   E E E Q  E
|--0----0--0--------0---0-0-|--3---3-3-3-3--3---|
|--1----1--1--------1---1-1-|--3---3-3-3-3--3---|
|--2----2--2--------2---2-2-|--0---0-0-0-0--0---|
|--3----3--3--------3---3-3-|--0---0-0-0-0--0---|
|---------------------------|-------------------|
|---------------------------|--3---3-3-3-3--3---|


                       Outro
        D.S. al Coda &
  D5                      D5                  Fmaj7
   ~~~                     ~~                  ~~
   H.           Q       a  W                a  W
|--------------------||-------------------|------------------|
|--------------------||-------------------|------------------|
|--------------------||-5s=7--------------|-7s=5-------------|
|--------------------||-------------------|------------------|
|--5-----------------||-------------------|------------------|
|--------------------||-------------------|------------------|
|
|  W                       W                   W
|--------------------||-------------------|---^0-------------|
|-^3-----------------||---^3--------------|---^1-------------|
|-^2-----------------||---^2--------------|---^2-------------|
|-^0-----------------||---^0--------------|---^3-------------|
|--------------------||-------------------|------------------|
|--------------------||-------------------|------------------|
|
|  E  E E E E E E E        Q  E E E E E E      Q  Q  E E E E
|--2--2-2-2-2-2-2-2--||-------------------|----0--0--0-0-0-0-|
|--3--3-3-3-3-3-3-3--||----3--3-3-3-3-3-3-|----1--1--1-1-1-1-|
|--2--2-2-2-2-2-2-2--||----2--2-2-2-2-2-2-|----2--2--2-2-2-2-|
|--0--0-0-0-0-0-0-0--||----0--0-0-0-0-0-0-|----3--3--3-3-3-3-|
|--------------------||-------------------|------------------|
|--------------------||-------------------|------------------|


    G5                 D5
     ~~                 ~~~~~~~~~~~~~~~~~~~
  a  W               a  H       +Q.     E
|------------------|----------------------|
|------------------|----------------------|
|-5s=4-------------|-4s=2-------(2)s====7-|
|------------------|----------------------|
|------------------|----------------------|
|------------------|----------------------|
|
|    W                  W
|------------------|----------------------|
|---^3-------------|---^3-----------------|
|---^4-------------|---^2-----------------|
|---^5-------------|---^0-----------------|
|------------------|----------------------|
|------------------|----------------------|
|
|    Q  E E E Q  E      E E E E  E  E E E
|----3--3-3-3-3--3-|----2-2-2-2--2--2-2-2-|
|----3--3-3-3-3--3-|----3-3-3-3--3--3-3-3-|
|----0--0-0-0-0--0-|----2-2-2-2--2--2-2-2-|
|----0--0-0-0-0--0-|----0-0-0-0--0--0-0-0-|
|------------------|----------------------|
|----3--3-3-3-3--3-|----------------------|


                           Fmaj7
 ~~~~~~~~~~~~~~~~~~         ~~~~~~~~~~~~~~~
                   |-3-|                   |-3-|
   H.          +E  S S S    H.         +E  S S S
|------------------------|------------------------|
|------------------------|------------------------|
|--7-----------(7)-7h9p7-|--5----------(5)-5h7p5s=|
|------------------------|------------------------|
|------------------------|------------------------|
|------------------------|------------------------|
|
|  W                        W
|------------------------|-^0---------------------|
|-^3---------------------|-^1---------------------|
|-^2---------------------|-^2---------------------|
|-^0---------------------|-^3---------------------|
|------------------------|------------------------|
|------------------------|------------------------|
|
|  Q   E E E E  E  E        Q   Q  E E  E  E
|------------------------|--0---0--0-0--0--0------|
|--3---3-3-3-3--3--3-----|--1---1--1-1--1--1------|
|--2---2-2-2-2--2--2-----|--2---2--2-2--2--2------|
|--0---0-0-0-0--0--0-----|--3---3--3-3--3--3------|
|------------------------|------------------------|
|------------------------|------------------------|


  G5                       D5
   ~~~~~~~~~~~~~~~~         ~~~~~~~~~~~~~~~~~~~
                   |-3-|
   H.          +E  S S S    E  +Q.       +Q.       E
|------------------------|----------------------------|
|------------------------|----------------------------|
|--4-----------(4)-4h5p4s|==2-([2])-----([2])s====<7>-|
|------------------------|----------------------------|
|------------------------|----------------------------|
|------------------------|----------------------------|
|
|  W                        W
|------------------------|----------------------------|
|-^3---------------------|-^3-------------------------|
|-^4---------------------|-^2-------------------------|
|-^5---------------------|-^0-------------------------|
|------------------------|----------------------------|
|------------------------|----------------------------|
|
|  Q   E E E Q     E        E   E   E E   E   E E  E
|--3---3-3-3-3-----3-----|--2---2---2-2---2---2-2--2--|
|--3---3-3-3-3-----3-----|--3---3---3-3---3---3-3--3--|
|--0---0-0-0-0-----0-----|--2---2---2-2---2---2-2--2--|
|--0---0-0-0-0-----0-----|--0---0---0-0---0---0-0--0--|
|------------------------|----------------------------|
|--3---3-3-3-3-----3-----|----------------------------|


                      Fmaj7
   ~~~~~~~~~~~~~~~~~~~~~~~~~~~~~~~
   H      +Q.     E    H     +Q.      E
|-------------------|-------------------|
|-------------------|-------------------|
|--7------(7)s====9-|--9-----(9)s====12-|
|-------------------|-------------------|
|-------------------|-------------------|
|-------------------|-------------------|
|
|  W                   W
|-------------------|-^0----------------|
|-^3----------------|-^1----------------|
|-^2----------------|-^2----------------|
|-^0----------------|-^3----------------|
|-------------------|-------------------|
|-------------------|-------------------|
|
|  Q  E E  E  E E E    Q  Q   E  E E  E
|-------------------|--0--0---0--0-0--0-|
|--3--3-3--3--3-3-3-|--1--1---1--1-1--1-|
|--2--2-2--2--2-2-2-|--2--2---2--2-2--2-|
|--0--0-0--0--0-0-0-|--3--3---3--3-3--3-|
|-------------------|-------------------|
|-------------------|-------------------|


  G5                           D5
   ~~~~~~~~~~~~~~~~~            ~~~~~~~~~~~~~~~~~~~
                     |--3--|
   H.           +E   S  S  S    H.            +E   E
|----------------------------|-----------------------|
|----------------------------|-----------------------|
|-12-----------(12)-12h14p12s|=11------------(11)\---|
|----------------------------|-----------------------|
|----------------------------|-----------------------|
|----------------------------|-----------------------|
|
|  W                            W
|----------------------------|-----------------------|
|-^3-------------------------|-^3--------------------|
|-^4-------------------------|-^2--------------------|
|-^5-------------------------|-^0--------------------|
|----------------------------|-----------------------|
|----------------------------|-----------------------|
|
|  Q   E E E Q       E          E  E E E E E   E   E
|--3---3-3-3-3-------3-------|--2--2-2-2-2-2---2---2-|
|--3---3-3-3-3-------3-------|--3--3-3-3-3-3---3---3-|
|--0---0-0-0-0-------0-------|--2--2-2-2-2-2---2---2-|
|--0---0-0-0-0-------0-------|--0--0-0-0-0-0---0---0-|
|----------------------------|-----------------------|
|--3---3-3-3-3-------3-------|-----------------------|


                        Fmaj7
  ~~~~~~~~~~~~~~~
  a  H      +Q.     E    H     +Q.      E
|---------------------|--------------------|
|---------------------|--------------------|
|-5s=7------(7)s====9-|--9-----(9)s====12--|
|---------------------|--------------------|
|---------------------|--------------------|
|---------------------|--------------------|
|
|    W                   W
|---------------------|-^0-----------------|
|---^3----------------|-^1-----------------|
|---^2----------------|-^2-----------------|
|---^0----------------|-^3-----------------|
|---------------------|--------------------|
|---------------------|--------------------|
|
|    Q  E E  E  E E E    Q  Q   E  E E  E
|---------------------|--0--0---0--0-0--0--|
|----3--3-3--3--3-3-3-|--1--1---1--1-1--1--|
|----2--2-2--2--2-2-2-|--2--2---2--2-2--2--|
|----0--0-0--0--0-0-0-|--3--3---3--3-3--3--|
|---------------------|--------------------|
|---------------------|--------------------|


  G5                           D5
   ~~~~~~~~~~~~~~~~~
                     |--3--|
   H.           +E   S  S  S    H.            +E   E   a  H      +Q.     E
|----------------------------|-----------------------|---------------------|
|----------------------------|-----------------------|---------------------|
|-12-----------(12)-12h14p12s|=11------------(11)\---|-5s=7------(7)s====9-|
|----------------------------|-----------------------|---------------------|
|----------------------------|-----------------------|---------------------|
|----------------------------|-----------------------|---------------------|
|
|  W                            W                         W
|----------------------------|-----------------------|---------------------|
|-^3-------------------------|-^3--------------------|---^3----------------|
|-^4-------------------------|-^2--------------------|---^2----------------|
|-^5-------------------------|-^0--------------------|---^0----------------|
|----------------------------|-----------------------|---------------------|
|----------------------------|-----------------------|---------------------|
|
|  Q   E E E Q       E          E  E E E E E   E   E      Q  E E  E  E E E
|--3---3-3-3-3-------3-------|--2--2-2-2-2-2---2---2-|---------------------|
|--3---3-3-3-3-------3-------|--3--3-3-3-3-3---3---3-|----3--3-3--3--3-3-3-|
|--0---0-0-0-0-------0-------|--2--2-2-2-2-2---2---2-|----2--2-2--2--2-2-2-|
|--0---0-0-0-0-------0-------|--0--0-0-0-0-0---0---0-|----0--0-0--0--0-0-0-|
|----------------------------|-----------------------|---------------------|
|--3---3-3-3-3-------3-------|-----------------------|---------------------|


  Fmaj7               G5                           D5
                       ~~~~~~~~~~~~~~~~~            ~~
                                         |--3--|
   H     +Q.      E    H.           +E   S  S  S    H       E  E    E  E
|-------------------|----------------------------|---------------------------*|
|-------------------|----------------------------|---------------------------*|
|--9-----(9)s====12-|-12-----------(12)-12h14p12s|=11---------12b14---12pb14-*|
|-------------------|----------------------------|---------------------------*|
|-------------------|----------------------------|---------------------------*|
|-------------------|----------------------------|---------------------------*|
|
|  W                   W                            W
|-^0----------------|----------------------------|---------------------------*|
|-^1----------------|-^3-------------------------|-^3------------------------*|
|-^2----------------|-^4-------------------------|-^2------------------------*|
|-^3----------------|-^5-------------------------|-^0------------------------*|
|-------------------|----------------------------|---------------------------*|
|-------------------|----------------------------|---------------------------*|
|
|  Q  Q   E  E E  E    Q   E E E Q       E          E E E E E  E    E  E
|--0--0---0--0-0--0-|--3---3-3-3-3-------3-------|--2-2-2-2-2--2----2--2-----*|
|--1--1---1--1-1--1-|--3---3-3-3-3-------3-------|--3-3-3-3-3--3----3--3-----*|
|--2--2---2--2-2--2-|--0---0-0-0-0-------0-------|--2-2-2-2-2--2----2--2-----*|
|--3--3---3--3-3--3-|--0---0-0-0-0-------0-------|--0-0-0-0-0--0----0--0-----*|
|-------------------|----------------------------|---------------------------*|
|-------------------|--3---3-3-3-3-------3-------|---------------------------*|


Duration Legend
---------------
W - whole; H - half; Q - quarter; E - 8th; S - 16th; T - 32nd; X - 64th; a - acciaccatura
+ - note tied to previous; . - note dotted; .. - note double dotted
Uncapitalized letters represent notes that are staccato (1/2 duration)
Irregular groupings are notated above the duration line
Duration letters will always appear directly above the note/fret number it represents the
duration for.  Duration letters with no fret number below them represent rests.  Multi-
bar rests are notated in the form Wxn, where n is the number of bars to rest for.  Low
melody durations appear below the staff

Tablature Legend
----------------
 h   - hammer-on
 p   - pull-off
 b   - bend
 pb  - pre-bend
 r   - bend release (if no number after the r, then release immediately)
 /\  - slide into or out of (from/to "nowhere")
 s   - legato slide
 S   - shift slide
  - natural harmonic
[n]  - artificial harmonic
n(n) - tapped harmonic
 ~   - vibrato
 tr  - trill
 T   - tap
 TP  - trem. picking
 PM  - palm muting
\n/  - tremolo bar dip; n = amount to dip
 \n  - tremolo bar down
 n/  - tremolo bar up
/n\  - tremolo bar inverted dip
 =   - hold bend; also acts as connecting device for hammers/pulls
 <>  - volume swell (louder/softer)
 x   - on rhythm slash represents muted slash
 o   - on rhythm slash represents single note slash

Misc Legend
-----------
 |  - bar
||  - double bar
||o - repeat start
o|| - repeat end
*|  - double bar (ending)
 :  - bar (freetime)
 $  - Segno
 &  - Coda
Tempo markers -  = BPM(8/16=s8/s16), where s8 = swing 8ths, s16 = swing 16ths
Suggest correction
Give kudos to tab author, rate the tab!
1 2 3 4 5
comments
print report bad tab
guest
You may want to rate the tab now too:
select rating
Wanna post a correction for this tab? Suggest correction