Oops, an error
Loading. Please wait.

Im The One Thats Cool Bass Tab

version 1
version 1

Whole song

Interactive

1,180 views 1 this week
1 commentread comment
1 2 3 4 5
accurate
x 3
add to favorites
launch autoscroll
font size
0
reset
guitar tuner
Tab Pro tools
  • play this tab
  • loop segment
  • change instrument
  • show fretboard
  • metronome
×
Best way to learn
"Im The One Thats Cool"
Autoscroll
slow
fast
+/-
esc
set tempo
stop
Contributor
Difficulty
intermediate
------------------------------
-  I'm the one that's cool   -
-      by   The Guild        -
------------------------------
Intro-Tab by TKchaos


INTRO/Theme:

2x
       ____    __              __      ____    __               __  
G|---------4---------------------|---------2----------------------| 
D|-2-------------5---5-5-4-2-----|-0--------------5---5-5-4-2-----|
A|-------------------------------|--------------------------------|
E|-------------------------------|--------------------------------|



VERSE:

2x
       ____    __              ____    ____    __                ____
G|---------4-----------------------|---------2-----------------------| 
D|-2-------------5---5-5-4-2-------|-0-------------5---5-5-4-2-------|
A|---------------------------------|---------------------------------|
E|---------------------------------|---------------------------------| 

1x
       ____    __              ____      ____    __              ____  
G|---------------------------------|---------2-----------------------| 
D|---------5-----------------------|-0-------------5---5-5-4-2-------|
A|-3-------------7---5-3---3-------|---------------------------------|
E|---------------------------------|---------------------------------|

1x
       ____    __              ____    ____    __                ____
G|---------4-----------------------|---------2---------------4-------| 
D|-2-------------5---5-5-4-2-------|-0-------------1---1-1-1---------|
A|---------------------------------|---------------------------------|
E|---------------------------------|---------------------------------| 


CHORUS:
2x

G|---------------------------------|---------------------------------|
D|---------------------------------|---------------------------------|
A|-7---7---7---7-------------------|-3---3---3---3-2---2-2-2-2---2---|
E|---------------3---3-3-3-3---3---|---------------------------------|



2nd & 3rd CHORUS:

4x

G|---------------------------------|---------------------------------|
D|---------------------------------|---------------------------------|
A|-7---7---7---7-------------------|-3---3---3---3-2---2-2-2-2---2---|
E|---------------3---3-3-3-3---3---|---------------------------------|




3rd VERSE:

3x
                   __                                __  __        __ 
G|---------------------------------|---------------------------------|
D|---------------------------------|---------------------------------|
A|---------------------------------|---------------3---3-------------|
E|-0---3---5---3-0---0-3-5-6-5-3-0-|---0-3-5-6-5-3---------0-3-5-3---|

1x
       ____    __              ____      ____    __              ____  
G|---------------------------------|---------2-----------------------| 
D|---------5-----------------------|-0-------------5---5-5-4-2-------|
A|-3-------------7---5-3---3-------|---------------------------------|
E|---------------------------------|---------------------------------|

1x
       ____    __              ____    ____    __                ____
G|---------4-----------------------|---------2---------------4-------| 
D|-2-------------5---5-5-4-2-------|-0-------------1---1-1-1---------|
A|---------------------------------|---------------------------------|
E|---------------------------------|---------------------------------|



BRIDGE ("got my comics...")
3x
G|---------------------------------|---------------------------------|
D|---------------------------------|---------------------------------|
A|-7-------------------------------|-3--------------5----------------|
E|-----------------3---------------|---------------------------------|


1x

G|---------------------------------|---------------------------------|
D|---------------------------------|----------------1---1-1-1-1-1----|
A|-7-------------------------------|-3-------------------------------|
E|-----------------3---------------|---------------------------------|


SOLO = CHORUS



"_" = silents/breaks


Have fun! & Please rate :)

Kind Regards, TKchaos
comments
We did not receive enough feedback on this tab! Please rate:
print report bad tab
1 2 3 4 5
1 comment total.
0 reply
TKchaos wrote on June 5 2012, 03:44 am

"Intro-Tab by TKchaos"

Is wrong^^ Forgot to change it.

It's the whole Song => "Tab by TKchaos"

I want to post or [tab]
guest
You may want to rate the tab now too:
select rating
Please do not post tabs as comments. Select "correction" instead!