Oops, an error
Loading. Please wait.

Decoy Woman Tab

123 views 1 this week
no commentswrite comment
1 2 3 4 5
please rate
add to favorites
launch autoscroll
font size
0
reset
how to read this tab
guitar tuner
Tab Pro tools
  • play this tab
  • loop segment
  • change instrument
  • show fretboard
  • metronome
×
Best way to learn
"Decoy Woman"
Autoscroll
slow
fast
+/-
esc
set tempo
stop
Contributor
Difficulty
novice
-------------------------------------------------------------------------------
                             DECOY WOMAN - The Guttercats
-------------------------------------------------------------------------------

Decoy Woman
Performed by: The Guttercats
Album: The Guttercats Demos
Also known for: Married with Children: Season 4, Episode 15 (Rock and Roll Girl)

Tabbed by: Ghoost21
E-mail: ghoost21@freemail.hu

Tuning: STANDARD E


INTRO

look after for rhythm

E|------------------------------| (4x)
B|------------------------------|
G|------------------------------|
D|--------------9--9--11--9-9---|
A|--9--11--9----7--7--7---7-7---|
E|--7--7---7--------------------|

VERSE

She walked in   That was enough  I've never seen     Such a beauty queen

E|---------------------------------------------------------------------------|
B|---------------------------------------------------------------------------|
G|---------------------------------------------------------------------------|
D|--------------9--9--11--9-9----7--7-7-7--9--9--11--9--9--9--11--9----------|
A|--9--11--9----7--7--7---7-7----5--5-5-5--7--7--7---7--7--7--7---7----------|
E|--7--7---7-----------------------------------------------------------------|

                                 She knew just how to bring me to my knees

E|---------------------------------------------------------------------------|
B|---------------------------------------------------------------------------|
G|---------------------------------------------------------------------------|
D|--------------9--9--11--9-9-----7--7--7-7--7-6-5-4-------------------------|
A|--9--11--9----7--7--7---7-7-----5--5--5-5--5-4-3-2-------------------------|
E|--7--7---7-----------------------------------------------------------------|



Pre-CHORUS

Tell me honey do you think   There's a place for you in my brain?

E|-------------------------------------------------|  (2x)
B|-------------------------------------------------|
G|-------------------------------------------------|
D|---------------------------7-6-5-4----7-6-5-4----|
A|--4--4--4-4--2--2--2-2-----5-4-3-2----5-4-3-2----|
E|--2--2--2-2--0--0--0-0---------------------------|

Why do you let me taking home?      Oh Baby, let me taking home

E|------------------------------------------------|
B|------------------------------------------------|
G|------------------------------------------------|
D|----------------------------------13---11---9---|
A|--6---4---2-----------------------11---9----7---|
E|--4---2---0-------------------------------------|


CHORUS

Be my decoy woman   all night long

E|-----------------------------------------------------------------|  (2x)
B|-----------------------------------------------------------------|
G|-----------------------------------------------------------------|
D|------------------9--9--11--9-9----------------------------------|
A|--9--11--9--------7--7--7---7-7---7--7--7-----4--4--4------------|
E|--7--7---7------------------------5--5--5-----2--2--2------------|


E|--------------------------------|  (2x)
B|--------------------------------|
G|--------------------------------|
D|----------------------7x7x7x7x--|
A|--9--11--9-9--11-9----5x5x5x5x--|
E|--7--7---7-7--7--7--------------|

VERSE 2 - Pre-CHORUS - CHORUS (guitar play same as the 1st time)

SOLO in key B (rythm guitar plays the intro)

OUTRO (same as the Pre-CHORUS)



If the band "guttercats" really exists and is not an unsigned band, please provide us 
with a link to the official website of this band in your tab below and click on Submit 
Your Tab button again.

The Guttercats didn't have an official web site. They were an existing band in the early 
'90s but never released anything. Only some demos, like this song.
http://hearrockcity.blogspot.hu/2010/05/age-of-mtv-and-video-sluts.html
comments
We did not receive enough feedback on this tab! Please rate:
print report bad tab
1 2 3 4 5
I want to post or [tab]
guest
You may want to rate the tab now too:
select rating
Please do not post tabs as comments. Select "correction" instead!