Oops, an error
Loading. Please wait.

Everything That Rises Must Converge chords

118 views 1 this week
no commentswrite comment
1 2 3 4 5
2 more votes to show rating
add to favorites
×
Save as Personal and add changes to this tab that will be seen only by you. Learn more ›
×
You can save this tab as Personal to edit and correct it or add notes. All changes will be seen only by you. Learn more »
launch autoscroll
font size
0
reset
transpose
0
reset
simplify chords
display chords
guitar tuner
edit
Autoscroll
slow
fast
+/-
esc
set tempo
stop
Strumming
There is no strumming pattern for this song yet. and get +5 IQ
Everything That Rises Must Converge
From the album Odessa

[INTRO]

   D                        Am                  C/B C                            G             G7
e|---2-----2-----2-----2-----------------------------------------------------------3-------3-----1---1---1-1-|
B|---3-----3-----3-----3------1-------------1----------1---------------------------3-------3-----0---0---0-0-|
G|-----2-----2-----2-----2----2--------0----2----------0------0-0h2-0----------------0-------0-----0---------|
D|-0-----------0----------------2--0h2--------2-----------0h2------------------------------------------------|
A|-------0-----------0------0-------------0-----0-2-3------------------3-2-0h2p0-------0h2-------------------|
E|-------------------------------------------------------------------------------3-------------3-------3-----|

[VERSE 1]

D
Some folks are like umbrellas
      Am
They pass through your life with little meaning
C/B   C                                                   G   G7
And then there's the ones that make you hang on to every word
D
Well, she was one of the latter
     Am
She came into my room and told me things that matter
C/B   C                                 G   G7
Like,    everything that rises must converge

[INTERLUDE]

   D                      Am                                 C               G              G7
e|-10--------------------------------------------------------8-----------------------------------------------|
B|---10------10------------------------------------------------8-----8---------------------------------------|
G|-----11b------11--9----------------------------9-11-12---------9b----9---7-------------------7b----7b------|
D|--------------------12--12--11-10---10-9-10-12-----------------------------10--10---9-9---8b----8b----8b-7-|
A|-----------------------------------------------------------------------------------------------------------|
E|-----------------------------------------------------------------------------------------------------------|

[VERSE 2]

D
When so-called experts try to tell you
      Am                        C/B
That parallel lines never intersect
C                                             G
Don't listen to 'em man, don't you believe a word
D
I'm speaking from experience
 Am
Everything that floats is gonna run into something
 C/B   C                                G   G7
'Cause   everything that rises must converge

[INTERLUDE]

    D                    Am                                 C               G          G7
e|-10-------------------------------------------------------8-------------------------------------------|
B|-10----10-------------------------------------------------8----8--------------------------------------|
G|-11b------11b---------------------------------------------9b-----9b------------------7b-------7b------|
D|------------------12---12--11-10---10-9-8----------------------------10--10---9-9----8b----8b----8b-7-|
A|-------------------------------------------12-11-10---------------------------------------------------|
E|------------------------------------------------------------------------------------------------------|

[VERSE 3]

D
Some folks are like umbrellas
      Am
They pass through your life with little meaning
C/B   C                                                   G   G7
And then there's the ones that make you hang on to every word
D
Well, he was one of the latter
    Am
He came into my room and told me things that matter
C/B   C                                 G   G7
Like,    everything that rises must converge

[OUTRO]

D Am C G G7

   D                        Am                  C/B C                            G             G7
e|---2-----2-----2-----2-----------------------------------------------------------3-------3-----1---1---1-1-|
B|---3-----3-----3-----3------1-------------1---------1----------------------------3-------3-----0---0---0-0-|
G|-----2-----2-----2-----2----2--------0----2---------0-------0-0h2-0----------------0-------0-----0---------|
D|-0-----------0----------------2--0h2--------2-----------0h2------------------------------------------------|
A|-------0-----------0------0-------------0-----0-2-3------------------3-2-0h2p0-------0h2-------------------|
E|-------------------------------------------------------------------------------3-------------3-------3-----|

D

            
            
Suggest correction
Creating personal tab
Creating personal tab
You can edit any tab online and save it as your Personal.

You can edit, replace or remove any tab part or add personal notes – all changes will be seen only by you.

Personal tabs can be accessed anytime from any device, even offline.
Learn more »
Give kudos to tab author, rate the tab!
1 2 3 4 5
comments
print report bad tab
guest
You may want to rate the tab now too:
select rating
Wanna post a correction for this tab? Suggest correction