Oops, an error
Loading. Please wait.

Wild Wood chords

82 views 3 this week
no commentswrite comment
1 2 3 4 5
3 more votes to show rating
add to favorites
×
Save as Personal and add changes to this tab that will be seen only by you. Learn more ›
×
You can save this tab as Personal to edit and correct it or add notes. All changes will be seen only by you. Learn more »
launch autoscroll
font size
0
reset
transpose
0
reset
display chords
guitar tuner
edit
Autoscroll
slow
fast
+/-
esc
set tempo
stop
Strumming
There is no strumming pattern for this song yet. and get +5 IQ
Wild Wood
From the album Honey Moon

[INTRO]

A

[VERSE 1]

            A    E              A
Give me a swamp,   a deep dark bog
             D                                A
Where I can lose my way in pools of slippery mud
                    D                         A
Give me cold, cold rain, a cloud of stinging bugs
                                E                      A
Deadly nightshade, poison oak, give me the wild, wild wood

[CHORUS]

     E         D                 A
The wild, the wild, wild, wild wood
     Bm        D                 A
The wild, the wild, wild, wild wood

[VERSE 2]

                  A    E                    A
We can dress in skins,    wrap our feet in bark
              D                           A
And you can growl at me or hit me with a rock
                  D                         A
When you want to say, "I love you," in the dark
                        E           A
And I will bark like a dog in your arms

[CHORUS]

        E         D                 A
In the wild, the wild, wild, wild wood
     Bm        D                 A
The wild, the wild, wild, wild wood

[INTERLUDE]

             A         E     A             D                 A              
e|--------------------------------------------------------------------------|
B|-----------------------------------------3--3-3----3-3--------------------|
G|---------------------------------------2-2--2-2--2h4-2--------------------|
D|-----------2---------------------2-2h4----------------4-4--2-2--4---------|
A|-0-0-0-2/4-------2-0-2b-2b-0--------------------------------------4p2-0---|
E|--------------------------------------------------------------------------|

             D             A                      E                  A
e|-----------------------------------------------------------------------------------|
B|-----------3----3-3----------------------------------------------------------------|
G|---------2-2--2h4p2---------------------------------------------------2-0----------|
D|-2-2h4--------------4-4--2-2--4------------------2------------------------2-0------|
A|--------------------------------4p2-0----0-0h2-4------------------------------3b-0-|
E|-----------------------------------------------------0-2b-0--0-2-4-5---------------|

[VERSE 3]

               A   E                     A
We can make a god     out of sticks and bones
           D                                A
Or we can pray to the trees or pray to the sun
                    D                     A
And our eyes will shine when we start to sing
                           E                 A
With the hungry wolves outside our freezing cave

[CHORUS]

        E         D                 A
In the wild, the wild, wild, wild wood
     Bm        D                 A
The wild, the wild, wild, wild wood

A
Suggest correction
Creating personal tab
Creating personal tab
You can edit any tab online and save it as your Personal.

You can edit, replace or remove any tab part or add personal notes – all changes will be seen only by you.

Personal tabs can be accessed anytime from any device, even offline.
Learn more »
Give kudos to tab author, rate the tab!
1 2 3 4 5
comments
print report bad tab
guest
You may want to rate the tab now too:
select rating
Wanna post a correction for this tab? Suggest correction