Oops, an error
Loading. Please wait.

Remove Your Hat chords

19 views 1 this week
no commentswrite comment
1 2 3 4 5
3 more votes to show rating
add to favorites
×
Save as Personal and add changes to this tab that will be seen only by you. Learn more ›
×
You can save this tab as Personal to edit and correct it or add notes. All changes will be seen only by you. Learn more »
launch autoscroll
font size
0
reset
transpose
0
reset
simplify chords
display chords
guitar tuner
edit
Autoscroll
slow
fast
+/-
esc
set tempo
stop
Author
Difficulty
About this tab version
It's the first original by me. Was this info helpful? Yes No
Strumming
There is no strumming pattern for this song yet. and get +5 IQ
[Verse]
Em7    Gsus2   Asus2   C   Csus2
It's been months since you were last clean
Em7    Gsus2   C       Csus2
Done shady things, your presence brings a bloody scene
Em7    Gsus2   Asus2   C   Csus2
You've demonstrated acts of cruelty and malevolence untold
Em7    Gsus2   C       Csus2
In the game you've entered into, you're unlikely to grow old

[Pre-Chorus]
Asus2   Bm     Em7    D
And it's foolishness to focus on appearances now
Asus2   Bm     C       D
Pray for a way out but you can't imagine how

[Chorus]
Em     Csus2   D-var
Hide your head away, it was always going to come, the day
Em     Csus2   Bm     Asus2
You outlived all your usefulness to them
Em     Csus2   D-var
Unbridled sinning could not distract you from the thinning
Asus2   Bm     Csus2   D
Remove your hat, you knew you were condemned. Face the end

[Verse]
Em7    Gsus2   Asus2   C   Csus2
You can't pretend that you weren't warned
Em7    Gsus2   C       Csus2
How many rejections could it take until it dawned?
Em7    Gsus2   Asus2   C   Csus2
Kick up a storm whenever you don't get your way
Em7    Gsus2   C       Csus2
How stupid must you be to aggravate a Kray?

[Pre-Chorus]
Asus2   Bm     Em7    D
Yes, it's foolishness to focus on appearances now
Asus2   Bm     C       D
There's nothing over you beyond that furrowed brow

[Chorus]
Em     Csus2   D-var
Hide your head away, it was always going to come, the day
Em     Csus2   Bm     Asus2
You outlived all your usefulness to them
Em     Csus2   D-var
Unbridled sinning could not distract you from the thinning
Asus2   Bm     Csus2   D
Remove your hat, and try to comprehend- the end

[SOLO]
e|--------------------------------------------------------------------------------------|
B|---------------------8-7---------8-7-------8------------------------------------------|
G|-----------------7-------9-7----------9-7-----9---------------------------------------|
D|-------------7-9----------------------------------7^888888v7--5-7-5-------------------|
A|---7--7--7----------------------------------------------------------7-5-7-------------|
E|--------------------------------------------------------------------------------------|

e|-------------------7-10-12---15-15-15--12---15-17-17^18v17-15-12--12-15-12------------|
B|-------------8-10---------------------------------------------------------15-12-------|
G|--------7-9---------------------------------------------------------------------14-12-|
D|---7-9--------------------------------------------------------------------------------|
A|--------------------------------------------------------------------------------------|
E|--------------------------------------------------------------------------------------|

e|----------12|
B|---12-15--15|
G|14----------|
D|------------|
A|------------|
E|------------|

Asus2   Bm     Em7    D
It was foolishness returning to that place
Asus2   Bm     C       D
All was said and done, and you revealed your face

[Chorus]
Em     Csus2   D-var
Hide your head away, it was always going to come, the day
Em     Csus2   Bm     Asus2
You outlived all your usefulness to them
Em     Csus2   D-var
Unbridled sinning could not distract you from the thinning
Asus2   Bm     Csus2   D
Remove your hat, for now you will descend. It's the end~
Em     Csus2   D-var
Em     Csus2   Bm     Asus2
It's the end~
Em     Csus2   D-var
It's the end~
Em     Csus2   Bm     Asus2
It's the end~

            
            
Suggest correction
Creating personal tab
Creating personal tab
You can edit any tab online and save it as your Personal.

You can edit, replace or remove any tab part or add personal notes – all changes will be seen only by you.

Personal tabs can be accessed anytime from any device, even offline.
Learn more »
Give kudos to tab author, rate the tab!
1 2 3 4 5
comments
print report bad tab
guest
You may want to rate the tab now too:
select rating
Wanna post a correction for this tab? Suggest correction