Oops, an error
Loading. Please wait.

99 Tab

version 2
version 2

Whole song

Interactive

1,832 views 6 this week
no commentswrite comment
1 2 3 4 5
please rate
add to favorites
launch autoscroll
font size
0
reset
how to read this tab
guitar tuner
Tab Pro tools
  • play this tab
  • loop segment
  • change instrument
  • show fretboard
  • metronome
×
Best way to learn
"99"
Autoscroll
slow
fast
+/-
esc
set tempo
stop
Contributor
-------------------------------------------------------------------------------
                             99 - The Haunted
-------------------------------------------------------------------------------
Tabbed by: evanwiyams
Email: mfulbright@hotmail.com

Tuning: Dropped D (DADGBE)

e|---------------------------------------------------------------------------|
B|---------------------------------------------------------------------------|
G|---------------------------------------------------------------------------|
D|---------------------------------------------------------------------------|
A|---3--6--5--0--------------------------------------------------------------|
D|---3--6--5--0----00-0-00-0-00-0-00-0-00-0-00-0-00-0------------------------|

e|---------------------------------------------------------------------------|
B|---------------------------------------------------------------------------|
G|---------------------------------------------------------------------------|
D|---------------------------------------------------------------------------|
A|---------------------------------------------------------------------------|
D|---0-00-0-00-0-00-0-00-0-00-0-00-0-00-0-00-0-------------------------------|


e|---------------------------------------------------------------------------|
B|---------------------------------------------------------------------------|
G|---------------------------------------------------------------------------|
D|---------------------------------------------------------------------------|
A|-----------------------------------------3--6--5--0------------------------|
D|---0-00-0-00-0-00-0-00-0-00-0-00-0-00-0--3--6--5--0------------------------|

e|---------------------------------------------------------------------------|
B|---------------------------------------------------------------------------|
G|---------------------------------------------------------------------------|
D|-------------------------------------------------------------------.-------|
A|---2-(2)--7--6--2--0--2-(2)--3--3-(3)-----------2-(2)--7--6--2--0--3-------|
D|---2-(2)--7--6--2--0--2-(2)--3--3-(3)-----------2-(2)--7--6--2--0--3-------|

e|---------------------------------------------------------------------------|
B|---------------------------------------------------------------------------|
G|---------------------------------------------------------------------------|
D|---------------------------------------------------------------------------|
A|---1p0---------------1p0---------------1/3--------1p0----------------------|
D|---1p0--0--0--00--0--1p0--0--0--00--0--1/3--0--0--1p0--0--0--00--0---------|

e|---------------------------------------------------------------------------|
B|---------------------------------------------------------------------------|
G|---------------------------------------------------------------------------|
D|----------------------------------------------------x4---------------------|
A|---1p0---------------------------------------------------------------------|
D|---1p0--0--0--00--0--0--6--3--0--1p0--0--0--00--0--------------------------|

e|---------------------------------------------------------------------------|
B|---------------------------------------------------------------------------|
G|---------------------------------------------------------------------------|
D|---6-6--3--5-(5)-5--0--3-(3)-3--0--6-(6)-6--6------------------------------|
A|---------------------------------------------------------------------------|
D|---6-6--3--5-(5)-5--0--3-(3)-3--0--6-(6)-6--6------------------------------|

e|---------------------------------------------------------------------------|
B|---------------------------------------------------------------------------|
G|---------------------------------------------------------------------------|
D|---6-6--3--5-(5)-5--0--3-(3)-3--0--0-(0)-0--0------------------------------|
A|---------------------------------------------------------------------------|
D|---6-6--3--5-(5)-5--0--3-(3)-3--0--0-(0)-0--0------------------------------|

e|---------------------------------------------------------------------------|
B|---------------------------------------------------------------------------|
G|---------------------------------------------------------------------------|
D|---6-6--3--5-(5)-5--0--3-(3)-3--0--6-(6)-6--6------------------------------|
A|---------------------------------------------------------------------------|
D|---6-6--3--5-(5)-5--0--3-(3)-3--0--6-(6)-6--6------------------------------|

e|---------------------------------------------------------------------------|
B|---------------------------------------------------------------------------|
G|---8-8--5--7-(7)--8-8--5--7-(7)--------------------------------------------|
D|---------------------------------------------------------------------------|
A|---6-6--3--5-(5)--6-6--3--5-(5)---3--6--5--0-(0)---------------------------|
D|----------------------------------3--6--5--0-(0)---------------------------|

e|---------------------------------------------------------------------------|
B|---------------------------------------------------------------------------|
G|---------------------------------------------------------------------------|
D|---------------------------------------------------------------------------|
A|-----------------------0---------------------------------------------------|
D|---0--0--3--6--3--0--1---1--0--3--6--3-(3)~--------------------------------|

e|---------------------------------------------------------------------------|
B|---------------------------------------------------------------------------|
G|---------------------------------------------------------------------------|
D|---------------------------------------------------------------------------|
A|------------------------------0------------6-(6)~--------------------------|
D|---0-(0)--0--0--3--6--3--0--1---1--0--3--6---------------------------------|

e|---------------------------------------------------------------------------|
B|---------------------------------------------------------------------------|
G|-------------------------8-(8)-7-(7)---------------------------------------|
D|----4-(4)--3-(3)--7-(7)----------------------------------------------------|
A|-------------------------6-(6)-5-(5)---------------------------------------|
D|----4-(4)--3-(3)--7-(7)----------------------------------------------------|

e|---------------------------------------------------------------------------|
B|---------------------------------------------------------------------------|
G|---------------------------------------------------------------------------|
D|------4-----4-----------4--7--4-----4--------------------------------------|
A|---------6-----6--5--6-----------6-----6--5--------------------------------|
D|---0-----------------------------------------------------------------------|

e|---------------------------------------------------------------------------|
B|---------------------------------------------------------------------------|
G|---------------------------------------------------------------------------|
D|---------------------------------6--5--------------------------------------|
A|------6--5--6--5-----8--6--5-----------8--6--------------------------------|
D|---0--------------0-----------0--------------------------------------------|

| /  slide up
| \  slide down
| h  hammer-on
| p  pull-off
| ~  vibrato
| +  harmonic
| x  Mute note
===============================================================================| 
comments
We did not receive enough feedback on this tab! Please rate:
print report bad tab
1 2 3 4 5
I want to post or [tab]
guest
You may want to rate the tab now too:
select rating
Please do not post tabs as comments. Select "correction" instead!