Oops, an error
Loading. Please wait.

Dark Intensions Bass Tab

version 1
version 1

Whole song

Interactive

113 views 1 this week
no commentswrite comment
1 2 3 4 5
please rate
add to favorites
launch autoscroll
font size
0
reset
guitar tuner
Tab Pro tools
  • play this tab
  • loop segment
  • change instrument
  • show fretboard
  • metronome
×
Best way to learn
"Dark Intensions"
Autoscroll
slow
fast
+/-
esc
set tempo
stop
Contributor
#----------------------------------PLEASE NOTE---------------------------------#
#This file is the author's own work and represents their interpretation of the #
#song. You may only use this file for private study, scholarship, or research. #
#------------------------------------------------------------------------------#

DARK INTENSIONS (Bassline)
As recorded by THE HAUNTED
(From the 2000 Album THE HAUNTED MADE ME DO IT)

Transcribed by DoomMaker (DoomMaker@Chello.hu)
	

Words and Music by The Haunted
Arranged by The Haunted

Gtr I (E A D G) - 'Bass'

 Intro
  Fast Rock Q=180
 4/4
  Gtr I
  W            E E Q  E E Q    E E Q  E E Q
|----------||----------------|---------------|
|----------||o---------------|---------------|
|----------||o---------------|---------------|
|----------||--0-0----0-0----|-0-0----0-0----|


  E E Q  E E Q    E E E E E E E E    3x
|---------------|--------------------||
|---------------|-------------------o||
|---------------|-------------------o||
|-0-0----0-0----|-0-0-0-0-0-0-0-3----||


      ~      ~        ~      ~        ~      ~
  E E Q  E E Q    E E Q  E E Q    E E Q  E E Q    E E E E E E E E
|---------------|-----7---------|---------------|-----------------|
|-----9------8--|------------8--|-----9------8--|-----------------|
|---------------|---------------|---------------|-----------------|
|-0-0----0-0----|-0-0----0-0----|-0-0----0-0----|-0-0-0-0-0-0-0-3-|


   Interlude
    E E E E E E E E   E E E E E E E E   E E E E E E E E   E E E E E E E E
||------------------|-----------------|-----------------|-------------------||
||o-----------------|-----------------|-----------------|------------------o||
||o-----------------|-----------------|-----------------|------------------o||
||--0-0-0-0-0-0-0-3-|-0-0-0-0-0-0-0-3-|-0-0-0-0-0-0-0-3-|-0-0-0-0-0-0-0-3---||


    E E E E E E E E   E E E E E E E E   E E E E E E E E   E E E E E E E E
||------------------|-----------------|-----------------|-------------------||
||o-----------------|-----------------|-----------------|------------------o||
||o-----------------|-----------------|-----------------|------------------o||
||--0-0-0-0-0-0-0-3-|-0-0-0-0-0-0-0-3-|-0-0-0-0-0-0-0-2-|-4-3-2-1-3-2-1-0---||


    E E H.        +Q.   E E E E E   E E H.        +Q.   E E E E E
||--------------|-----------------|-------------|-------------------||
||o-------------|-----------------|-------------|------------------o||
||o-------------|-----------------|-------------|------------------o||
||--2-1-0-------|-(0)---2-4-3-2-1-|-2-1-0-------|-(0)---2-4-3-2-1---||


   Bridge
          ~        ~          ~        ~
    S S E Q  S S E Q    S S E Q  S S E Q
||--------------------|-------7-----------|
||o-------9--------8--|----------------8--|
||o-------------------|-------------------|
||--0-0-0----0-0-0----|-0-0-0----0-0-0----|


        ~        ~
  S S E Q  S S E Q    E E E E E E E E    4x
|-------------------|--------------------||
|-------9--------8--|-------------------o||
|-------------------|-------------------o||
|-0-0-0----0-0-0----|-0-0-0-0-0-0-0-3----||


 Outro
  W          +W           +W           +W
|----------|------------|------------|------------|
|----------|------------|------------|------------|
|----------|------------|------------|------------|
|-0--------|-(0)--------|-(0)--------|-(0)--------|


  +W           +W           +W           +W
|------------|------------|------------|--------*|
|------------|------------|------------|--------*|
|------------|------------|------------|--------*|
|-(0)--------|-(0)--------|-(0)--------|-(0)----*|



Duration Legend
---------------
W - whole; H - half; Q - quarter; E - 8th; S - 16th; T - 32nd; X - 64th; a - acciaccatura
+ - note tied to previous; . - note dotted; .. - note double dotted
Uncapitalized letters represent notes that are staccato (1/2 duration)
Irregular groupings are notated above the duration line
Duration letters will always appear directly above the note/fret number it represents the
duration for.  Duration letters with no fret number below them represent rests.  Multi-
bar rests are notated in the form Wxn, where n is the number of bars to rest for.  Low
melody durations appear below the staff

Tablature Legend
----------------
 h   - hammer-on
 p   - pull-off
 b   - bend
 pb  - pre-bend
 r   - bend release (if no number after the r, then release immediately)
 /\  - slide into or out of (from/to "nowhere")
 s   - legato slide
 S   - shift slide
 - natural harmonic
[n]  - artificial harmonic
n(n) - tapped harmonic
 ~   - vibrato
 tr  - trill
 T   - tap
 TP  - trem. picking
 PM  - palm muting
\n/  - tremolo bar dip; n = amount to dip
 \n  - tremolo bar down
 n/  - tremolo bar up
/n\  - tremolo bar inverted dip
 =   - hold bend; also acts as connecting device for hammers/pulls
 <> - volume swell (louder/softer)
 x   - on rhythm slash represents muted slash
 o   - on rhythm slash represents single note slash

Misc Legend
-----------
 |  - bar
||  - double bar
||o - repeat start
o|| - repeat end
*|  - double bar (ending)
 :  - bar (freetime)
 $  - Segno
 &  - Coda
Tempo markers -  = BPM(8/16=s8/s16), where s8 = swing 8ths, s16 = swing 16ths

comments
We did not receive enough feedback on this tab! Please rate:
print report bad tab
1 2 3 4 5
I want to post or [tab]
guest
You may want to rate the tab now too:
select rating
Please do not post tabs as comments. Select "correction" instead!