Oops, an error
Loading. Please wait.

Sweet Relief tab

version 2
version 2

Whole song

Interactive

667 views 3 this week
no commentswrite comment
1 2 3 4 5
3 more votes to show rating
add to favorites
×
Save as Personal and add changes to this tab that will be seen only by you. Learn more ›
×
You can save this tab as Personal to edit and correct it or add notes. All changes will be seen only by you. Learn more »
launch autoscroll
font size
0
reset
how to read this tab
guitar tuner
edit
Autoscroll
slow
fast
+/-
esc
set tempo
stop
#----------------------------------PLEASE NOTE---------------------------------#
#This file is the author's own work and represents their interpretation of the #
#song. You may only use this file for private study, scholarship, or research. #
#------------------------------------------------------------------------------#

SWEET RELIEF
As recorded by The Haunted
(From the 2004 Album REVOLVER)

Transcribed by Krim
        

Words by Peter Dolving Music by Anders Björler
Arranged by The Haunted

Gtr I (D G C F A D) - 'Untitled'
Gtr II (D G C F A D) - 'Untitled'

 Intro
  Q=105
  E5
 4/4
  Gtr I
        PM  PM  PM     PM|        PM|
  S S S S S S S S  e   S S T T  S S S
|-------------------------------------|
|-------------------------------------|
|-------------------------------------|
|---------9---8-----------------------|
|-7-7-7-----------10-------7h9h10-----|
|-------0---0---0------0-0--------0-0-|
|
| Gtr II
| S S S S S S S S  S S S S S    S S S
|-------------------------------------|
|-------------------------------------|
|-------------------------------------|
|-2-2-2---2-2-2----2-2-2---2----2-2---|
|-2-2-2---2-2-2----2-2-2---2----2-2---|
|-0-0-0---0-0-0----0-0-0---0----0-0---|


  B                Bb
      PM|   PM   PM    PM|   PM          PM|   PM  PM   PM|        PM|
  E   S S S S  S S E   S S S S E     S S S S S S S S  e S S T T  S S S
|----------------------------------|------------------------------------|
|----------------------------------|------------------------------------|
|----------------------------------|------------------------------------|
|-9-------8--------8-------7-------|---------9---8----------------------|
|-------------10---------------8---|-7-7-------------10-----7h9h10------|
|-----7-7---7----7-----6-6---6-----|-----0-0---0---0----0-0--------0-0--|
|
|                                        PM|   PM  PM   PM|        PM|
| S S S S S S  S S S S S S S S S S   S S S S S S S S  e S S T T  S S S
|----------------------------------|------------------------------------|
|----------------------------------|------------------------------------|
|----------------------------------|------------------------------------|
|-9-9-9-9-9-9--9-9-8-8-8-8-8-8-8-8-|---------9---8----------------------|
|----------------------------------|-7-7-------------10-----7h9h10------|
|-7-7-7-7-7-7--7-7-6-6-6-6-6-6-6-6-|-----0-0---0---0----0-0--------0-0--|


  N.C.
  Gtrs I, II
    PM|   PM  PM    PM|       PM|
  S S S S S S S S S S S S S S S S
|---------------------------------|
|---------------------------------|
|---------------------------------|
|-8-----7-------------------------|
|-----------8---8p7---------------|
|---6-6---6---6-----0-0-5-6-5-0-0-|


      PM|   PM  PM   PM|        PM|     PM|   PM  PM    PM|       PM|
  S S S S S S S S  e S S T T  S S S   S S S S S S S S S S S S S S S S
|-----------------------------------|---------------------------------|
|-----------------------------------|---------------------------------|
|-----------------------------------|---------------------------------|
|---------9---8---------------------|-8-----7-------------------------|
|-7-7-------------10-----7h9h10-----|-----------8---8p7---------------|
|-----0-0---0---0----0-0--------0-0-|---6-6---6---6-----0-0-5-6-5-0-0-|


 Verse
  N.C.
 4/4
  PM----------|   PM  PM    PM-----------------
  T T T T T T S S S S S S S T T S T T S T T S
|---------------------------------------------|
|---------------------------------------------|
|---------------------------------------------|
|---------------2---1-------------------------|
|---------------2---1-------------------------|
|-0-0-0-0-0-0-0---0---0-3p0-0-0-0-0-0-0-0-0-0-|


 -------------|   PM  PM    PM--|       PM
  T T T T T T S S S S S S S T T S S S S S
|-------------------------------------------|
|-------------------------------------------|
|-------------------------------------------|
|---------------2---1---------------3-------|
|---------------2---1-----------------------|
|-0-0-0-0-0-0-0---0---0-3p0-0-0-0-1---1-0---|


  N.C.
  PM----------|   PM  PM    PM-----------------
  T T T T T T S S S S S S S T T S T T S T T S
|---------------------------------------------|
|---------------------------------------------|
|---------------------------------------------|
|---------------2---1-------------------------|
|---------------2---1-------------------------|
|-0-0-0-0-0-0-0---0---0-3p0-0-0-0-0-0-0-0-0-0-|


                                F5
 -------------|   PM  PM    PM|
  T T T T T T S S S S S S S S S Q
|-----------------------------------|
|-----------------------------------|
|-----------------------------------|
|---------------2---1-----------3---|
|---------------2---1-----------3---|
|-0-0-0-0-0-0-0---0---0-3p0-0-0-1---|


  N.C.                                                      C
                                         3/4
  PM------|   PM  PM  PM--|   PM  PM|     PM  PM  PM  PM--|
  T T T T S S S S S S T T S S S S S S S   S S S S S S T T S S S E
|---------------------------------------|-------------------------|
|---------------------------------------|-------------------------|
|---------------------------------------|-------------------9-9-9-|
|-------------------------------------8-|-------------------8-8-8-|
|-----------7-------6-------7-----------|---7-------6-------7-7-7-|
|-5-5-5-5-5---5-8-5---5-5-5---5-8-5-6---|-5---5-8-5---5-5-5-------|


  N.C.
 4/4
  PM----------|   PM  PM    PM-----------------
  T T T T T T S S S S S S S T T S T T S T T S
|---------------------------------------------|
|---------------------------------------------|
|---------------------------------------------|
|---------------2---1-------------------------|
|---------------2---1-------------------------|
|-0-0-0-0-0-0-0---0---0-3p0-0-0-0-0-0-0-0-0-0-|


 -------------|   PM  PM    PM--|       PM
  T T T T T T S S S S S S S T T S S S S S
|-------------------------------------------|
|-------------------------------------------|
|-------------------------------------------|
|---------------2---1---------------3-------|
|---------------2---1-----------------------|
|-0-0-0-0-0-0-0---0---0-3p0-0-0-0-1---1-0---|


  N.C.                                          C   B  F   E
  Gtr I
  PM----------|   PM  PM    PM--------------|
  T T T T T T S S S S S S S T T S T T S T T S    Q  Q   Q   Q
|---------------------------------------------|----------------|
|---------------------------------------------|----------------|
|---------------------------------------------|----------------|
|---------------2---1-------------------------|-10--9--15--14--|
|---------------2---1-------------------------|----------------|
|-0-0-0-0-0-0-0---0---0-3p0-0-0-0-0-0-0-0-0-0-|--8--7--13--12--|
|
| Gtr II
| PM----------|   PM  PM    PM--------------|
| T T T T T T S S S S S S S T T S T T S T T S    Q  Q   Q   Q
|---------------------------------------------|----------------|
|---------------------------------------------|----------------|
|---------------------------------------------|----------------|
|---------------2---1-------------------------|-10--9--10---9--|
|---------------2---1-------------------------|----------------|
|-0-0-0-0-0-0-0---0---0-3p0-0-0-0-0-0-0-0-0-0-|--8--7---8---7--|


   Pre-Chorus
    F5       F5      F5       F5
       PM--|   PM--|    PM--|   PM--|
     E T T S E T T S  E T T S E T T S
||------------------------------------|
||o-----------------------------------|
||------------------------------------|
||--10---------------10---------------|
||o--8----------------8---------------|
||-----0-0-0---0-0-0----0-0-0---0-0-0-|
|
|      PM--|   PM--|    PM--|   PM--|
|    E T T S E T T S  E T T S E T T S
||------------------------------------|
||o-----------------------------------|
||------------------------------------|
||-----------3----------------3-------|
||o----------3----------------3-------|
||-----0-0-0-1-0-0-0----0-0-0-1-0-0-0-|


 1.                     2.
                  C5     N.C.
      PM|     PM|             PM|      PM|
  E E S S E E S S Q       E E S S E  E S S E  E
|---------------------||------------------------|
|--------------------o||------------------------|
|---------------------||------------------------|
|-----------------5---||------------------------|
|-3-2-----7-3-----3--o||--3-2-----7--3-----2--3-|
|-----0-0-----0-0-----||------0-0------0-0------|
|
|     PM|     PM|             PM|      PM|
| E E S S E E S S Q       E E S S E  E S S E  E
|---------------------||------------------------|
|--------------------o||------------------------|
|---------------------||------------------------|
|-----------------5---||----------9-10----------|
|-3-2-----7-3-----3--o||-10-9--------------9-10-|
|-----0-0-----0-0-----||------0-0------0-0------|


 Chorus
  E5                C                 C#m               C           E5
  E E E E E E E E   E E E E E E E E   E E E E E E E E   E E E E  E  E E E
|-----0-------0---|-----0-------0---|-----0-------0---|-----0---------0---|
|-------0-------0-|-------0-------0-|-------0-------0-|-------0---------0-|
|-0-------0-------|-0-------0-------|-0-------0-------|-0--------0--------|
|---2-------2-----|---2-------2-----|---2-------2-----|---2---------2-----|
|-----------------|-----------------|-----------------|-------------------|
|-----------------|-----------------|-----------------|-------------------|
|
|                                                                   PM--|
| W                 W                 W                 H       +E  E E E
|-----------------|-----------------|-----------------|-------------------|
|-----------------|-----------------|-----------------|-------------------|
|-----------------|-----------------|-----------------|-------------------|
|-----------------|-----------------|-----------------|-------------------|
|-2---------------|-7---------------|-7---------------|-7-------(7)-2-2-2-|
|-0---------------|-6---------------|-9---------------|-8-------(8)-0-0-0-|


  E5                C                 C#m               C
  E E E E E E E E   E E E E E E E E   E E E E E E E E   E E E E E E E E
|-----0-------0---|-----0-------0---|-----0-------0---|-----0-------0---|
|-------0-------0-|-------0-------0-|-------0-------0-|-------0-------0-|
|-0-------0-------|-0-------0-------|-0-------0-------|-0-------0-------|
|---2-------2-----|---2-------2-----|---2-------2-----|---2-------2-----|
|-----------------|-----------------|-----------------|-----------------|
|-----------------|-----------------|-----------------|-----------------|
|
|   PM----------|     PM----------|     PM----------|     PM----------|
| E E E E E E E E   E E E E E E E E   E E E E E E E E   E E E E E E E E
|-----------------|-----------------|-----------------|-----------------|
|-----------------|-----------------|-----------------|-----------------|
|-----------------|-----------------|-----------------|-----------------|
|-----------------|-----------------|-----------------|-----------------|
|-2-2-2-2-2-2-2-2-|-7-7-7-7-7-7-7-7-|-7-7-7-7-7-7-7-7-|-7-7-7-7-7-7-7-7-|
|-0-0-0-0-0-0-0-0-|-6-6-6-6-6-6-6-6-|-9-9-9-9-9-9-9-9-|-8-8-8-8-8-8-8-8-|


 Intro-riff
  N.C.
  Gtrs I, II
      PM|   PM  PM   PM|        PM      PM|   PM  PM    PM|       PM|
  S S S S S S S S  e S S T T  S S S   S S S S S S S S S S S S S S S S
|-----------------------------------|---------------------------------|
|-----------------------------------|---------------------------------|
|-----------------------------------|---------------------------------|
|---------9---8---------------------|-8-----7-------------------------|
|-7-7-------------10-----7h9h10-----|-----------8---8p7---------------|
|-----0-0---0---0----0-0--------0-0-|---6-6---6---6-----0-0-5-6-5-0-0-|


      PM|   PM  PM   PM|        PM|     PM|   PM  PM    PM|       PM|
  S S S S S S S S  e S S T T  S S S   S S S S S S S S S S S S S S S S
|-----------------------------------|---------------------------------|
|-----------------------------------|---------------------------------|
|-----------------------------------|---------------------------------|
|---------9---8---------------------|-8-----7-------------------------|
|-7-7-------------10-----7h9h10-----|-----------8---8p7---------------|
|-----0-0---0---0----0-0--------0-0-|---6-6---6---6-----0-0-5-6-5-0-0-|


 Verse
  N.C.
 4/4
  PM----------|   PM  PM    PM-----------------
  T T T T T T S S S S S S S T T S T T S T T S
|---------------------------------------------|
|---------------------------------------------|
|---------------------------------------------|
|---------------2---1-------------------------|
|---------------2---1-------------------------|
|-0-0-0-0-0-0-0---0---0-3p0-0-0-0-0-0-0-0-0-0-|


 -------------|   PM  PM    PM--|       PM
  T T T T T T S S S S S S S T T S S S S S
|-------------------------------------------|
|-------------------------------------------|
|-------------------------------------------|
|---------------2---1---------------3-------|
|---------------2---1-----------------------|
|-0-0-0-0-0-0-0---0---0-3p0-0-0-0-1---1-0---|


  N.C.
  PM----------|   PM  PM    PM-----------------
  T T T T T T S S S S S S S T T S T T S T T S
|---------------------------------------------|
|---------------------------------------------|
|---------------------------------------------|
|---------------2---1-------------------------|
|---------------2---1-------------------------|
|-0-0-0-0-0-0-0---0---0-3p0-0-0-0-0-0-0-0-0-0-|


                                F5
 -------------|   PM  PM    PM|
  T T T T T T S S S S S S S S S Q
|-----------------------------------|
|-----------------------------------|
|-----------------------------------|
|---------------2---1-----------3---|
|---------------2---1-----------3---|
|-0-0-0-0-0-0-0---0---0-3p0-0-0-1---|


  N.C.                                                      C
                                         3/4
  PM------|   PM  PM  PM--|   PM  PM|     PM  PM  PM  PM--|
  T T T T S S S S S S T T S S S S S S S   S S S S S S T T S S S E
|---------------------------------------|-------------------------|
|---------------------------------------|-------------------------|
|---------------------------------------|-------------------9-9-9-|
|-------------------------------------8-|-------------------8-8-8-|
|-----------7-------6-------7-----------|---7-------6-------7-7-7-|
|-5-5-5-5-5---5-8-5---5-5-5---5-8-5-6---|-5---5-8-5---5-5-5-------|


  N.C.
 4/4
  PM----------|   PM  PM    PM-----------------
  T T T T T T S S S S S S S T T S T T S T T S
|---------------------------------------------|
|---------------------------------------------|
|---------------------------------------------|
|---------------2---1-------------------------|
|---------------2---1-------------------------|
|-0-0-0-0-0-0-0---0---0-3p0-0-0-0-0-0-0-0-0-0-|


 -------------|   PM  PM    PM--|       PM
  T T T T T T S S S S S S S T T S S S S S
|-------------------------------------------|
|-------------------------------------------|
|-------------------------------------------|
|---------------2---1---------------3-------|
|---------------2---1-----------------------|
|-0-0-0-0-0-0-0---0---0-3p0-0-0-0-1---1-0---|


  N.C.                                          C   B  F   E
  PM----------|   PM  PM    PM--------------|
  T T T T T T S S S S S S S T T S T T S T T S    Q  Q   Q   Q
|---------------------------------------------|----------------|
|---------------------------------------------|----------------|
|---------------------------------------------|----------------|
|---------------2---1-------------------------|-10--9--15--14--|
|---------------2---1-------------------------|----------------|
|-0-0-0-0-0-0-0---0---0-3p0-0-0-0-0-0-0-0-0-0-|--8--7--13--12--|
|
| Gtr II
| PM----------|   PM  PM    PM--------------|
| T T T T T T S S S S S S S T T S T T S T T S    Q  Q   Q   Q
|---------------------------------------------|----------------|
|---------------------------------------------|----------------|
|---------------------------------------------|----------------|
|---------------2---1-------------------------|-10--9--10---9--|
|---------------2---1-------------------------|----------------|
|-0-0-0-0-0-0-0---0---0-3p0-0-0-0-0-0-0-0-0-0-|--8--7---8---7--|


   Pre-chorus riff
    F5       F5      F5       F5
       PM--|   PM--|    PM--|   PM--|
     E T T S E T T S  E T T S E T T S
||------------------------------------|
||o-----------------------------------|
||------------------------------------|
||--10---------------10---------------|
||o--8----------------8---------------|
||-----0-0-0---0-0-0----0-0-0---0-0-0-|
|
|      PM--|   PM--|    PM--|   PM--|
|    E T T S E T T S  E T T S E T T S
||------------------------------------|
||o-----------------------------------|
||------------------------------------|
||-----------3----------------3-------|
||o----------3----------------3-------|
||-----0-0-0-1-0-0-0----0-0-0-1-0-0-0-|


 1.                     2.
                  C5     N.C.
      PM|     PM|             PM|      PM|
  E E S S E E S S Q       E E S S E  E S S E  E
|---------------------||------------------------|
|--------------------o||------------------------|
|---------------------||------------------------|
|-----------------5---||------------------------|
|-3-2-----7-3-----3--o||--3-2-----7--3-----2--3-|
|-----0-0-----0-0-----||------0-0------0-0------|
|
|     PM|     PM|             PM|      PM|
| E E S S E E S S Q       E E S S E  E S S E  E
|---------------------||------------------------|
|--------------------o||------------------------|
|---------------------||------------------------|
|-----------------5---||----------9-10----------|
|-3-2-----7-3-----3--o||-10-9--------------9-10-|
|-----0-0-----0-0-----||------0-0------0-0------|


 Interlude
  N.C.
  Gtr I
  S S S S S S S S S S S S S S S S
|---------------------------------|
|---------------------------------|
|---------------------------------|
|---------------------------------|
|---------------------------------|
|-7-7-7-0-0-0-7-7-7-0-0-0-7-7-0-7-|


  S S S S S S S S S S S S S S S S   S S S S S S S S S S S S S S S S
|---------------------------------|---------------------------------|
|---------------------------------|---------------------------------|
|---------------------------------|---------------------------------|
|---------------------------------|---------------------------------|
|---------------------------------|---------------------------------|
|-6-6-6-0-0-0-6-6-6-0-0-0-6-6-0-6-|-7-7-7-0-0-0-7-7-7-0-0-0-7-7-0-7-|


  N.C.                                  E5
  S S S S S S S S S S S S Q     S S S S S S S S S S S S S S S S
|-----------------------------|---------------------------------|
|-----------------------------|---------------------------------|
|-----------------------------|---------------------------------|
|-----------------------------|---------------------------------|
|-----------------------------|---------------------------------|
|-8-8-8-0-0-0-8-8-8-0-0-0-8\--|-7-7-7-0-0-0-7-7-7-0-0-0-7-7-0-7-|
|
| Gtr II
|                                       PM|     PM|     PM|
| W                             Q       S S E   S S E   S S E
|-----------------------------|---------------------------------|
|-----------------------------|---------------------------------|
|-----------------------------|---------------------------------|
|-----------------------------|---------------------------------|
|-----------------------------|-9-------2-2-----2-2-----2-2-----|
|-----------------------------|-7-------0-0-----0-0-----0-0-----|


  Bb5     E5
  S S S S S S S S S S S S S S S S
|-----------------------------------|
|-----------------------------------|
|-----------------------------------|
|-----------------------------------|
|-----------------------------------|
|-6-6-6-0-0-0-6-6-6-0-0-0-6-6-0-6---|
|
|         PM|   PM|   PM--|
| Q       S S S S S S S S E   E
|-----------------------------------|
|-----------------------------------|
|-----------------------------------|
|-----------------------------------|
|-8-------2-2---2-2---2-2-2---------|
|-6-------0-0---0-0---0-0-0---------|


  B5      E5
  S S S S S S S S S S S S S S S S
|---------------------------------|
|---------------------------------|
|---------------------------------|
|---------------------------------|
|---------------------------------|
|-7-7-7-0-0-0-7-7-7-0-0-0-7-7-0-7-|
|
|         PM|     PM|     PM|
| Q       S S E   S S E   S S E
|---------------------------------|
|---------------------------------|
|---------------------------------|
|---------------------------------|
|-9-------2-2-----2-2-----2-2-----|
|-7-------0-0-----0-0-----0-0-----|


  C5       E5                        B5      E5
   S S S S S S S S S S S S S S S S   S S S S S S S S S S S S S S S S
|----------------------------------|---------------------------------|
|----------------------------------|---------------------------------|
|----------------------------------|---------------------------------|
|----------------------------------|---------------------------------|
|----------------------------------|---------------------------------|
|--8-8-8-0-0-0-8-8-8-0-0-0-8-8-0-8-|-7-7-7-0-0-0-7-7-7-0-0-0-7-7-0-7-|
|
|          PM|   PM|   PM--|                 PM|     PM|     PM|
|  Q       S S S S S S S S E   E     Q       S S E   S S E   S S E
|----------------------------------|---------------------------------|
|----------------------------------|---------------------------------|
|----------------------------------|---------------------------------|
|----------------------------------|---------------------------------|
|-10-------2-2---2-2---2-2-2-------|-9-------2-2-----2-2-----2-2-----|
|--8-------0-0---0-0---0-0-0-------|-7-------0-0-----0-0-----0-0-----|


  Bb5     E5                        B5      E5
  S S S S S S S S S S S S S S S S   S S S S S S S S S S S S S S S S
|---------------------------------|---------------------------------|
|---------------------------------|---------------------------------|
|---------------------------------|---------------------------------|
|---------------------------------|---------------------------------|
|---------------------------------|---------------------------------|
|-6-6-6-0-0-0-6-6-6-0-0-0-6-6-0-6-|-7-7-7-0-0-0-7-7-7-0-0-0-7-7-0-7-|
|
|         PM|   PM|   PM--|                 PM|     PM|     PM|
| Q       S S S S S S S S E   E     Q       S S E   S S E   S S E
|---------------------------------|---------------------------------|
|---------------------------------|---------------------------------|
|---------------------------------|---------------------------------|
|---------------------------------|---------------------------------|
|-8-------2-2---2-2---2-2-2-------|-9-------2-2-----2-2-----2-2-----|
|-6-------0-0---0-0---0-0-0-------|-7-------0-0-----0-0-----0-0-----|


  C5       E5
   S S S S S S S S S S S S S S S S
|----------------------------------|
|----------------------------------|
|----------------------------------|
|----------------------------------|
|----------------------------------|
|--8-8-8-0-0-0-8-8-8-0-0-0-8-8-0-8-|
|
|          PM|   PM|   PM--|
|  Q       S S S S S S S S E   E
|----------------------------------|
|----------------------------------|
|----------------------------------|
|----------------------------------|
|-10-------2-2---2-2---2-2-2-------|
|--8-------0-0---0-0---0-0-0-------|


 Guitar Solo
  E5               C               C#m
  Gtr I
   Q  E  Q  E Q    E Q  E E E Q    S S Q  S S Q  S S E
|----------------|---------------|---------------------|
|-12--0-10--0-8--|-0-7--0-3-5----|-----3------5------3-|
|----------------|------------2--|-2-4----2-4----2-4---|
|----------------|---------------|---------------------|
|----------------|---------------|---------------------|
|----------------|---------------|---------------------|
|
| Gtr II
|  W               W               W
|----------------|---------------|---------------------|
|----------------|---------------|---------------------|
|----------------|---------------|---------------------|
|----------------|---------------|---------------------|
|--2-------------|-7-------------|-7-------------------|
|--0-------------|-6-------------|-9-------------------|


  C                       E5
  +E  T T S S S S S  S  S S S S S S S
|--------------------------------------|
|-(3)----------------------------------|
|-----2h4p2----------------------------|
|-----------5p4h5p4--2--0--------------|
|-------------------------3p2p0-2-5-0--|
|--------------------------------------|
|
|  H                +E    E   E   E
|--------------------------------------|
|--------------------------------------|
|--------------------------------------|
|--------------------------------------|
|--7----------------(7)---2---2---2----|
|--8----------------(8)---0---0---0----|


  E5                                 C
                                      TP TP TP TP TP TP  TP   TP
   S  S  S  S  S  S  S  S  H          E  E  E  E  E  E  +E   +E
|-19-22-19-17-15-17-15-14-15-------|-15-14-12----12-15-(15)-(15)-|
|----------------------------------|----------15-----------------|
|----------------------------------|-----------------------------|
|----------------------------------|-----------------------------|
|----------------------------------|-----------------------------|
|----------------------------------|-----------------------------|
|
|  PM-------------------------------------------------------------
|  E     E     E     E     E E E E    E  E  E  E  E  E   E    E
|----------------------------------|-----------------------------|
|----------------------------------|-----------------------------|
|----------------------------------|-----------------------------|
|----------------------------------|-----------------------------|
|--2-----2-----2-----2-----2-2-2-2-|--7--7--7--7--7--7---7----7--|
|--0-----0-----0-----0-----0-0-0-0-|--6--6--6--6--6--6---6----6--|


  C#m                                  C
                                                            ~~
   S S S  S S S  S S S  S S S   Q        E    E    E    E   h
|-15p0-0-15p0-0-15p0-0-15p0-0-[15]---|-[15]-[14]-[12]-[14]-15---------|
|------------------------------------|--------------------------------|
|------------------------------------|--------------------------------|
|------------------------------------|--------------------------------|
|------------------------------------|--------------------------------|
|------------------------------------|--------------------------------|
|
|-----------------------------------------------------------------|
|  E   E    E    E   E    E     E  E     E    E    E    E   E E E E
|------------------------------------|--------------------------------|
|------------------------------------|--------------------------------|
|------------------------------------|--------------------------------|
|------------------------------------|--------------------------------|
|--7---7----7----7---7----7-----7--7-|---7----7----7----7---7-7-7-7---|
|--9---9----9----9---9----9-----9--9-|---8----8----8----8---8-8-8-8---|


 Interlude
  B5 E5                  Bb5E5                    B5 E5
  Gtrs I, II
     PM|   PM|   PM|        PM|   PM|   PM--|        PM|   PM|   PM|
  Q  S S E S S E S S E   Q  S S S S S S S S E E   Q  S S E S S E S S E
|----------------------|------------------------|----------------------|
|----------------------|------------------------|----------------------|
|----------------------|------------------------|----------------------|
|----------------------|------------------------|----------------------|
|-9--2-2---2-2---2-2---|-8--2-2---2-2---2-2-2---|-9--2-2---2-2---2-2---|
|-7--0-0---0-0---0-0---|-6--0-0---0-0---0-0-0---|-7--0-0---0-0---0-0---|


  C5  E5                    B5 E5                  Bb5E5
      PM|   PM|   PM--|        PM|   PM|   PM|        PM|   PM|   PM--|
   Q  S S S S S S S S E E   Q  S S E S S E S S E   Q  S S S S S S S S E E
|-------------------------|----------------------|--------------------------|
|-------------------------|----------------------|--------------------------|
|-------------------------|----------------------|--------------------------|
|-------------------------|----------------------|--------------------------|
|-10--2-2---2-2---2-2-2---|-9--2-2---2-2---2-2---|-8--2-2---2-2---2-2-2-----|
|--8--0-0---0-0---0-0-0---|-7--0-0---0-0---0-0---|-6--0-0---0-0---0-0-0-----|


  B5 E5                  C5  E5
     PM|   PM|   PM|         PM|   PM|   PM--|
  Q  S S E S S E S S E    Q  S S S S S S S S E E
|----------------------|-------------------------|
|----------------------|-------------------------|
|----------------------|-------------------------|
|----------------------|-------------------------|
|-9--2-2---2-2---2-2---|-10--2-2---2-2---2-2-2---|
|-7--0-0---0-0---0-0---|--8--0-0---0-0---0-0-0---|


 Chorus
  E5                C                 C#m               C           E5
  Gtr I
  E E E E E E E E   E E E E E E E E   E E E E E E E E   E E E E  E  E E E
|-----------------|-----------------|-----------------|-------------------|
|-0-8-0-7-0-5-0-8-|-0-8-0-7-0-5-0-8-|-0-8-0-7-0-5-0-8-|-0-8-0-7--0--5-0-8-|
|-----------------|-----------------|-----------------|-------------------|
|-----------------|-----------------|-----------------|-------------------|
|-----------------|-----------------|-----------------|-------------------|
|-----------------|-----------------|-----------------|-------------------|
|
| Gtr II
| W                 W                 W                 H       +E  E E E
|-----------------|-----------------|-----------------|-------------------|
|-----------------|-----------------|-----------------|-------------------|
|-----------------|-----------------|-----------------|-------------------|
|-----------------|-----------------|-----------------|-------------------|
|-2---------------|-7---------------|-7---------------|-7-------(7)-2-2-2-|
|-0---------------|-6---------------|-9---------------|-8-------(8)-0-0-0-|


  E5                C                 C#m               C
  E E E E E E E E   E E E E E E E E   E E E E E E E E   E E E E E E E E
|-----------------|-----------------|-----------------|-----------------|
|-0-8-0-7-0-5-0-8-|-0-8-0-7-0-5-0-8-|-0-8-0-7-0-5-0-8-|-0-8-0-7-0-5-0-8-|
|-----------------|-----------------|-----------------|-----------------|
|-----------------|-----------------|-----------------|-----------------|
|-----------------|-----------------|-----------------|-----------------|
|-----------------|-----------------|-----------------|-----------------|
|
| E E E E E E E E   E E E E E E E E   E E E E E E E E   E E E E E E E E
|-----------------|-----------------|-----------------|-----------------|
|-----------------|-----------------|-----------------|-----------------|
|-----------------|-----------------|-----------------|-----------------|
|-----------------|-----------------|-----------------|-----------------|
|-2-2-2-2-2-2-2-2-|-7-7-7-7-7-7-7-7-|-7-7-7-7-7-7-7-7-|-7-7-7-7-7-7-7-7-|
|-0-0-0-0-0-0-0-0-|-6-6-6-6-6-6-6-6-|-9-9-9-9-9-9-9-9-|-8-8-8-8-8-8-8-8-|


 Outro
  N.C.
  Gtrs I, II
      PM|   PM  PM   PM|        PM      PM|   PM   PM  PM  PM  PM   PM
  S S S S S S S S  e S S T T  S S S   e S S S S  S S S S S S S S  S S
|-----------------------------------|----------------------------------|
|-----------------------------------|----------------------------------|
|-----------------------------------|----------------------------------|
|---------9---8---------------------|-9-----8--------------------------|
|-7-7-------------10-----7h9h10-----|-----------10---9---7---9---10----|
|-----0-0---0---0----0-0--------0-0-|---7-7---7----7---6---6---6----6--|


      PM|   PM  PM   PM|        PM|     PM|   PM  PM  PM  PM  PM
  S S S S S S S S  e S S T T  S S S   e S S S S S S S S S S S S S S
|-----------------------------------|--------------------------------|
|-----------------------------------|--------------------------------|
|-----------------------------------|--------------------------------|
|---------9---8---------------------|-8-----7------------------------|
|-7-7-------------10-----7h9h10-----|-----------8---7---5---7---8----|
|-----0-0---0---0----0-0--------0-0-|---6-6---6---6---5---5---5---5--|


  Gtrs I, II
      PM|   PM  PM   PM|        PM      PM|   PM   PM  PM  PM  PM   PM
  S S S S S S S S  e S S T T  S S S   e S S S S  S S S S S S S S  S S
|-----------------------------------|----------------------------------|
|-----------------------------------|----------------------------------|
|-----------------------------------|----------------------------------|
|---------9---8---------------------|-9-----8--------------------------|
|-7-7-------------10-----7h9h10-----|-----------10---9---7---9---10----|
|-----0-0---0---0----0-0--------0-0-|---7-7---7----7---6---6---6----6--|


      PM|   PM  PM   PM|        PM|
  S S S S S S S S  e S S T T  S S S
|-----------------------------------|
|-----------------------------------|
|-----------------------------------|
|---------9---8---------------------|
|-7-7-------------10-----7h9h10-----|
|-----0-0---0---0----0-0--------0-0-|


    PM|   PM  PM  PM  PM  PM
  e S S S S S S S S S S S S E   S H    Q.   S
|-----------------------------|---------------*|
|-----------------------------|---------------*|
|-----------------------------|---------------*|
|-8-----7---------------------|-2-------------*|
|-----------8---7---5---7---8-|-2-------------*|
|---6-6---6---6---5---5---5---|-0-------------*|



Duration Legend
---------------
W - whole; H - half; Q - quarter; E - 8th; S - 16th; T - 32nd; X - 64th; a - acciaccatura
+ - note tied to previous; . - note dotted; .. - note double dotted
Uncapitalized letters represent notes that are staccato (1/2 duration)
Irregular groupings are notated above the duration line
Duration letters will always appear directly above the note/fret number it represents the
duration for.  Duration letters with no fret number below them represent rests.  Multi-
bar rests are notated in the form Wxn, where n is the number of bars to rest for.  Low
melody durations appear below the staff

Tablature Legend
----------------
 h   - hammer-on
 p   - pull-off
 b   - bend
 pb  - pre-bend
 r   - bend release (if no number after the r, then release immediately)
 /\  - slide into or out of (from/to "nowhere")
 s   - legato slide
 S   - shift slide
 - natural harmonic
[n]  - artificial harmonic
n(n) - tapped harmonic
 ~   - vibrato
 tr  - trill
 T   - tap
 TP  - trem. picking
 PM  - palm muting
\n/  - tremolo bar dip; n = amount to dip
 \n  - tremolo bar down
 n/  - tremolo bar up
/n\  - tremolo bar inverted dip
 =   - hold bend; also acts as connecting device for hammers/pulls
 <> - volume swell (louder/softer)
 x   - on rhythm slash represents muted slash
 o   - on rhythm slash represents single note slash

Misc Legend
-----------
 |  - bar
||  - double bar
||o - repeat start
o|| - repeat end
*|  - double bar (ending)
 :  - bar (freetime)
 $  - Segno
 &  - Coda
Tempo markers -  = BPM(8/16=s8/s16), where s8 = swing 8ths, s16 = swing 16ths


            
            
Suggest correction
Creating personal tab
Creating personal tab
You can edit any tab online and save it as your Personal.

You can edit, replace or remove any tab part or add personal notes – all changes will be seen only by you.

Personal tabs can be accessed anytime from any device, even offline.
Learn more »
Give kudos to tab author, rate the tab!
1 2 3 4 5
comments
print report bad tab
guest
You may want to rate the tab now too:
select rating
Wanna post a correction for this tab? Suggest correction