Oops, an error
Loading. Please wait.

The Fallout tab

version 2
version 2

Whole song

Interactive

4,370 views 3 this week
6 commentsread comments
1 2 3 4 5
x 12
add to favorites
×
Save as Personal and add changes to this tab that will be seen only by you. Learn more ›
×
You can save this tab as Personal to edit and correct it or add notes. All changes will be seen only by you. Learn more »
launch autoscroll
font size
0
reset
how to read this tab
guitar tuner
edit
Autoscroll
slow
fast
+/-
esc
set tempo
stop
Author
-------------------------------------------------------------------------------
                             The fallout – the haunted
-------------------------------------------------------------------------------
Tabbed by: joeeee
Email:crazymcmangledurmum@hotmail.com

| /  slide up
| \  slide down
| h  hammer-on
| p  pull-off
| ~  vibrato
| +  harmonic
| x  Mute note


Tuning: C#
C#|------|
G#|------|
 E|------|
 B|------|
F#|------|
C#|------|





Fades in...
Guitar 1:                                                                 
  |----------------------------------------------------------------------|-----------------|
  |----------------------------------------------------------------------|-----------------|
  |-12---9---9-12-9------------------------------------------------------|-----------------|
  |-------------------9---------7----------------------------------9-----|----------9------|
  |-10---7---7/10\7-----------6---6-----10---7---7-10-7-----9-----9-9----|---9-----9-------|
  |----0---0--------0---7-0-7-------7------8---8--------8-10--7-11---11--|-10--7-11--11-12-|
p.m    .   .        .               ~      .   .        .       ~    ~           ~      ~\
                                                                          * last time only

Guitar 2:  over guitar 1
  |------|-----|-------|-------|-------|-------|-------|-------|-------|-------|----|
  |------|-----|-------|-------|-------|-------|-------|-------|-------|-------|----|
  |------|-----|-------|-------|-------|---9---|---4---|---5---|---7---|---8---|----|
  |--2---|---4-|---5---|---7---|---9---|---9---|---4---|---5---|---7---|---7---|----|
  |--2---|-----|-------|-------|-------|---7---|---2---|---3---|---5---|---6---|*-7-|
  |--0---|---2-|---3---|---5---|---7---|-------|-------|-------|-------|-------|----|


                                                                                *last time only

VERSE. (w/ some chorus and delay)

    X4           x2              x2        whole thing x 2
  |---------0-|-----------0-|---------0-|-------------------------------------|
  |-----8-----|-----10------|----10-----|-------------------------------------|
  |---9---9---|--12----12---|--8----8---|-------------------------------------|
  |-----------|-------------|-----------|-------------------------------------|
  |-----------|-------------|-----------|-------------------------------------|
  |-----------|-------------|-----------|-------------------------------------|

Heavy riff

  |---------------------------------------------------------------------------|
  |---------------------------------------------------------------------------|
  |--9-----9-----9-----9-----9---9-9--12----12----12----12-----12---12-12-----|
  |---------------------------------------------------------------------------|
  |--7-----7-----7-----7-----7---7-7--10----10----10----10-----10---10-10-----|
  |--0-0-0-0-0-0-0-0-0-0-0-0-0-0-0-0---0-0-0-0-0-0-0-0-0-0-0-0--0-0--0--0-----|
p.m  . . . . . . . . . . . . . . . .   . . . . . . . . . . . .  . .  .  .

  |------------------------------------------------------------|-------|
  |------------------------------------------------------------|-------|
  |------------------------------------------------------------|-------|
  |------------------------------------------------------------|-------|
  |--7-7-7-7-7-7-7-7-7-7-7-7-7-7-7-7-6-6-6-6-6-6-6-6-6-6-6-6---|-6-----|
  |--3-3-3-3-3-3-3-3-3-3-3-3-3-3-3-3-2-2-2-2-2-2-2-2-2-2-----7-|-------|
p.m    . .   . .   . .   . .   .       . .   . .   . .   .   ~   ~ * git 2 ending

    X4           x2             x2       whole thing x 2
|---------0-|-----------0-|---------0-|-------------------------------------|
|-----8-----|-----10------|----10-----|-------------------------------------|
|---9---9---|--12----12---|--8----8---|-------------------------------------|
|-----------|-------------|-----------|-------------------------------------|
|-----------|-------------|-----------|-------------------------------------|
|-----------|-------------|-----------|-------------------------------------|






Guitar 1:
X4
  |----------------------------------------------------------------------|-----------------|
  |----------------------------------------------------------------------|-----------------|
  |-12---9---9-12-9------------------------------------------------------|-----------------|
  |-------------------9---------7----------------------------------9-----|----------9------|
  |-10---7---7/10\7-----------6---6-----10---7---7-10-7-----9-----9-9----|---9-----9-------|
  |----0---0--------0---7-0-7-------7------8---8--------8-10--7-11---11--|-10--7-11--11-12-|
p.m    .   .        .               ~      .   .        .       ~    ~           ~      ~\
                                                                          * last time only
|                                                                             |
Guitar 2:  over guitar 1
  |------|-----|-------|-------|-------|-------|-------|-------|-------|-------|----|
  |------|-----|-------|-------|-------|-------|-------|-------|-------|-------|----|
  |------|-----|-------|-------|-------|---9---|---4---|---5---|---7---|---8---|----|
  |--2---|---4-|---5---|---7---|---9---|---9---|---4---|---5---|---7---|---7---|----|
  |--2---|-----|-------|-------|-------|---7---|---2---|---3---|---5---|---6---|*-7-|
  |--0---|---2-|---3---|---5---|---7---|-------|-------|-------|-------|-------|----|

                                                                                *last time only

Guitar 1/2 alternate:

  Guitar 1:
  |-----------------------------------------------------------------------------------|
  |-----------------------------------------------------------------------------------|
  |--12---9---9-12-9------------------------------------------------------------------|
  |-----------------------------------------------------------------------------------|
  |--10---7---7/10\7~------------------------------------~10---7---7/10\7~-------10-9-|
  |-----0---0------------------------------------------------0---0--------------------|

  Guitar 2:                                           
  |---------------------------------------------------------------------------|
  |---------------------------------------------------------------------------|
  |--9-------------------12---9---9-12-9---12-----16------9-------------------|
  |---------------------------------------------------------------------------|
  |--7-------------------10---7---7/10\7--/10~---/14~~~---7-------------------|
  |-------------------------0---0---------------------------------------------|

 


   X4           x2             x2       whole thing x 2
  |---------0-|-----------0-|---------0-|-------------------------------------|
  |-----8-----|-----10------|----10-----|-------------------------------------|
  |---9---9---|--12----12---|--8----8---|-------------------------------------|
  |-----------|-------------|-----------|-------------------------------------|
  |-----------|-------------|-----------|-------------------------------------|
  |-----------|-------------|-----------|-------------------------------------|


  |---------------------------------------------------------------------------|
  |---------------------------------------------------------------------------|
  |--9-----9-----9-----9-----9---9-9--12----12----12----12-----12---12-12-----|
  |---------------------------------------------------------------------------|
  |--7-----7-----7-----7-----7---7-7--10----10----10----10-----10---10-10-----|
  |--0-0-0-0-0-0-0-0-0-0-0-0-0-0-0-0---0-0-0-0-0-0-0-0-0-0-0-0--0-0--0--0-----|
p.m  . . . . . . . . . . . . . . . .   . . . . . . . . . . . .  . .  .  .

  |------------------------------------------------------------|-------|
  |------------------------------------------------------------|-------|
  |------------------------------------------------------------|-------|
  |------------------------------------------------------------|-------|
  |--7-7-7-7-7-7-7-7-7-7-7-7-7-7-7-7-6-6-6-6-6-6-6-6-6-6-6-6---|-6-----|
  |--3-3-3-3-3-3-3-3-3-3-3-3-3-3-3-3-2-2-2-2-2-2-2-2-2-2-----7-|-------|
p.m    . .   . .   . .   . .   .       . .   . .   . .   .   ~   ~ * git 2 ending











Guitar 1:
X4
  |----------------------------------------------------------------------|
  |----------------------------------------------------------------------|
  |-12---9---9-12-9------------------------------------------------------|
  |-------------------9---------7----------------------------------9-----|
  |-10---7---7/10\7-----------6---6-----10---7---7-10-7-----9-----9-9----|
  |----0---0--------0---7-0-7-------7------8---8--------8-10--7-11---11--|
p.m    .   .        .               ~      .   .        .       ~    ~       

                                                                             
Guitar 2:  over guitar 1
  |------|-----|-------|-------|-------|-------|-------|-------|-------|-------|----|
  |------|-----|-------|-------|-------|-------|-------|-------|-------|-------|----|
  |------|-----|-------|-------|-------|---9---|---4---|---5---|---7---|---8---|----|
  |--2---|---4-|---5---|---7---|---9---|---9---|---4---|---5---|---7---|---7---|----|
  |--2---|-----|-------|-------|-------|---7---|---2---|---3---|---5---|---6---|*-7-|
  |--0---|---2-|---3---|---5---|---7---|-------|-------|-------|-------|-------|----|

                                                                                *last time only
  |                                                                           |
  |                                                                           |
  |  tremolo, w/ delay and chorus                                             |
  |----12--10--8--7-----------------------------------------------------------|
  |------------------8--10----------------------------------------------------|
  |-------------------------8--9----------------------------------------------|
  |---------------------------------------------------------------------------|
  |---------------------------------------------------------------------------|
  |---------------------------------------------------------------------------|
  |                                                                           |
  |    X4           x2             x2       whole thing x 2                   |
  |---------0-|-----------0-|---------0-|-------------------------------------|
  |-----8-----|-----10------|----10-----|-------------------------------------|
  |---9---9---|--12----12---|--8----8---|-------------------------------------|
  |-----------|-------------|-----------|-------------------------------------|
  |-----------|-------------|-----------|-------------------------------------|
  |-----------|-------------|-----------|-------------------------------------|
  |                                                                           |
  |                                                                           |
  |---------------------------------------------------------------------------|
  |---------------------------------------------------------------------------|
  |-12---9---9-12-9-----------------------------------------------------------|
  |-------------------9---------7----------------------------------9----------|
  |-10---7---7/10\7-----------6---6-----10---7---7-10-7-----9-----9-9---------|
  |----0---0--------0---7-0-7-------7------8---8--------8-10--7-11---11-------|
p.m    .   .        .               ~      .   .        .       ~    ~    
                                                                        

DON´T YOU WANT SOMETHING REAL?

            
            
Suggest correction
Creating personal tab
Creating personal tab
You can edit any tab online and save it as your Personal.

You can edit, replace or remove any tab part or add personal notes – all changes will be seen only by you.

Personal tabs can be accessed anytime from any device, even offline.
Learn more »
comments
print report bad tab
6 comments total. Showing first comments.
0 reply
drcrazy 10 Mar 14, 2008 12:36 PM

Yeah

0 reply
drcrazy 10 Mar 14, 2008 12:37 PM

omg so good even tho i cnt read it

+2 reply
MASTER JiMMY 570 Apr 02, 2008 07:24 AM

this tab is better than porn

guest
You may want to rate the tab now too:
select rating
Wanna post a correction for this tab? Suggest correction