Oops, an error
Loading. Please wait.

Trespass bass

version 1
version 1

Whole song

Interactive

361 views 3 this week
no commentswrite comment
1 2 3 4 5
2 more votes to show rating
add to favorites
×
Save as Personal and add changes to this tab that will be seen only by you. Learn more ›
×
You can save this tab as Personal to edit and correct it or add notes. All changes will be seen only by you. Learn more »
launch autoscroll
font size
0
reset
guitar tuner
edit
Autoscroll
slow
fast
+/-
esc
set tempo
stop
Band- Haunted
Song- Trespass

tune down

F#||--------------------------|---------------------------|
C#||--------------------------|---------------------------|
G#||--------------3--3--3--3--|---------------------------|
D#||--0--0--0--0--------------|--3--3--3--3--3-5/-8-5/-7--|


                                                       
--------------------------|---------------------------|
--------------------------|---------------------------|
--------------3--3--3--3--|---------------------------|
--0--0--0--0--------------|--3--3--3--3--3-5/-8-5/-7--|


                                                       
--------------------------|---------------------------|
--------------------------|---------------------------|
--------------3--3--3--3--|---------------------------|
--0--0--0--0--------------|--3--3--3--3--3-5/-8-5/-7--|


                                                       
--------------------------|---------------------------|
--------------------------|---------------------------|
--------------3--3--3--3--|---------------------------|
--0--0--0--0--------------|--3--3--3--3--3-5/-8-5/-7--|


                                               
----------------------------------------------|
----------------------------------------------|
--3-3-3-3-3-3-3-3-3-3-3-3-----------------5---|
--------------------------3-3-3-3-3-3-1-4---4-|


                                                                               
----------------------------------|-------------------------------------------|
------------------6h7h6-----------|-------------------------------------------|
------5---7---8---------7-8---5h8-|--3-3-3-3-3-3-3-3-3-3-3-3------------------|
--0-0---0---0---0-----------0-----|--------------------------3-3-3-3-3-3-2----|


                                            
-------------------------------------------|
-------------------------------------------|
-------------------------------------------|
--0-0-0-0-0-0-0-0-0-0-0-0-0-0-0-0--2/3-3/2-|


                                               
----------------------------------------------|
----------------------------------------------|
--3-3-3-3-3-3-3-3-3-3-3-3-----------------5---|
--------------------------3-3-3-3-3-3-1-4---4-|


                                                                               
----------------------------------|-------------------------------------------|
----------------------------------|-------------------------------------------|
------0---2---3---5---3---0-3-2-0-|--3-3-3-3-3-3-3-3-3-3-3-3------------------|
--0-0---0---0---0---0---0---------|--------------------------3-3-3-3-3-3-2----|


                                                                       
-------------------------------------------|--------------------------|
-------------------------------------------|--------------------------|
-------------------------------------------|--------------3--3--3--3--|
--0-0-0-0-0-0-0-0-0-0-0-0-0-0-0-0--2/3-3/2-|--0--0--0--0--------------|


                                                       
---------------------------|--------------------------|
---------------------------|--------------------------|
---------------------------|--------------3--3--3--3--|
--3--3--3--3--3-5/-8-5/-7--|--0--0--0--0--------------|


                                                                       
---------------------------|-------------------|----------------------|
---------------------------|-------------------|----------------------|
---------------------------|-------------------|----------------------|
--3--3--3--3--3-5/-8-5/-7--|--0----------------|--1----5----7----8----|


                                             
-------------------|------------------------|
-------------------|------------------------|
-------------------|------------2h-5h-2-----|
--0----------------|--1----5-------------3--|


                                               
----------------------------------------------|
----------------------------------------------|
--3-3-3-3-3-3-3-3-3-3-3-3-----------------5---|
--------------------------3-3-3-3-3-3-1-4---4-|


                                                                               
----------------------------------|-------------------------------------------|
------------------6h7h6-----------|-------------------------------------------|
------5---7---8---------7-8---5h8-|--3-3-3-3-3-3-3-3-3-3-3-3------------------|
--0-0---0---0---0-----------0-----|--------------------------3-3-3-3-3-3-2----|


                                            
-------------------------------------------|
-------------------------------------------|
-------------------------------------------|
--0-0-0-0-0-0-0-0-0-0-0-0-0-0-0-0--2/3-3/2-|


                                               
----------------------------------------------|
----------------------------------------------|
--3-3-3-3-3-3-3-3-3-3-3-3-----------------5---|
--------------------------3-3-3-3-3-3-1-4---4-|


                                                                               
----------------------------------|-------------------------------------------|
----------------------------------|-------------------------------------------|
------0---2---3---5---3---0-3-2-0-|--3-3-3-3-3-3-3-3-3-3-3-3------------------|
--0-0---0---0---0---0---0---------|--------------------------3-3-3-3-3-3-2----|


                                                                       
-------------------------------------------|--------------------------|
-------------------------------------------|--------------------------|
-------------------------------------------|--------------3--3--3--3--|
--0-0-0-0-0-0-0-0-0-0-0-0-0-0-0-0--2/3-3/2-|--0--0--0--0--------------|


                                                       
---------------------------|--------------------------|
---------------------------|--------------------------|
---------------------------|--------------3--3--3--3--|
--3--3--3--3--3-5/-8-5/-7--|--0--0--0--0--------------|


                                                                       
---------------------------|-------------------|----------------------|
---------------------------|-------------------|----------------------|
---------------------------|-------------------|----------------------|
--3--3--3--3--3-5/-8-5/-7--|--0----------------|--1----5----7----8----|


                                                                 
-------------------|------------------------|-------------------|
-------------------|------------------------|-------------------|
-------------------|------------2h-5h-2-----|-------------------|
--0----------------|--1----5-------------3--|--0----------------|


                                                                    
----------------------|-------------------|------------------------|
----------------------|-------------------|------------------------|
----------------------|-------------------|------------2h-5h-2-----|
--1----5----7----8----|--0----------------|--1----5-------------3--|


                                                                        
------------------|--------------------------|-------------------------|
------------------|--------------------------|-------------------------|
------------------|----------3-------2-------|----------------------3--|
------------------|------------5-5-5---3-3-3-|--0----0--0--0--0--0-----|


                                                                           
-------------------|-------------------------|----------------------------|
-------------------|-------------------------|----------------------------|
----------1--------|-------------------------|------------3-------2-------|
-------------------|--0----0--0--0--0--0--3--|----5--5------5-5-5---3-3-3-|


                                                                        
-------------------------|-------------------|-------------------------|
-------------------------|-------------------|-------------------------|
----------------------3--|----------1--------|-------------------------|
--0----0--0--0--0--0-----|-------------------|--0----0--0--0--0--0--3--|


                                                                           
----------------------------|-------------------------|-------------------|
----------------------------|-------------------------|-------------------|
------------3-------2-------|----------------------3--|----------1--------|
----5--5------5-5-5---3-3-3-|--0----0--0--0--0--0-----|-------------------|


                                                                        
-----------------------|-----------------------|-----------------------|
-----------------------|-----------------------|-----------------------|
--------------------4--|----4--4--3----3--2----|--------------------4--|
--0----0----0----0-----|-----------------------|--0----0----0----0-----|


                                                                        
-----------------------|-----------------------|-----------------------|
-----------------------|-----------------------|-----------------------|
----4--4-------3--2----|--------------------4--|----4--4--3----3--2----|
----------0------------|--0----0----0----0-----|-----------------------|


                                                                   
-----------------------|---------------------|--------------------|
-----------------------|---------------------|--------------------|
--------------------4--|----4--4--3----------|--------------------|
--0----0----0----0-----|---------------------|--5--------3--------|


                                                                      
----------------------|----------------------------------------------|
----------------------|----------------------------------------------|
----------------------|--3-3-3-3-3-3-3-3-3-3-3-3-----------------5---|
--3----2--3--2--------|--------------------------3-3-3-3-3-3-1-4---4-|


                                                                               
----------------------------------|-------------------------------------------|
------------------6h7h6-----------|-------------------------------------------|
------5---7---8---------7-8---5h8-|--3-3-3-3-3-3-3-3-3-3-3-3------------------|
--0-0---0---0---0-----------0-----|--------------------------3-3-3-3-3-3-2----|


                                            
-------------------------------------------|
-------------------------------------------|
-------------------------------------------|
--0-0-0-0-0-0-0-0-0-0-0-0-0-0-0-0--2/3-3/2-|


                                               
----------------------------------------------|
----------------------------------------------|
--3-3-3-3-3-3-3-3-3-3-3-3-----------------5---|
--------------------------3-3-3-3-3-3-1-4---4-|


                                                                               
----------------------------------|-------------------------------------------|
----------------------------------|-------------------------------------------|
------0---2---3---5---3---0-3-2-0-|--3-3-3-3-3-3-3-3-3-3-3-3------------------|
--0-0---0---0---0---0---0---------|--------------------------3-3-3-3-3-3-2----|


                                                                       
-------------------------------------------|--------------------------|
-------------------------------------------|--------------------------|
-------------------------------------------|--------------3--3--3--3--|
--0-0-0-0-0-0-0-0-0-0-0-0-0-0-0-0--2/3-3/2-|--0--0--0--0--------------|


                                                       
---------------------------|--------------------------|
---------------------------|--------------------------|
---------------------------|--------------3--3--3--3--|
--3--3--3--3--3-5/-8-5/-7--|--0--0--0--0--------------|


                                                                       
---------------------------|-------------------|----------------------|
---------------------------|-------------------|----------------------|
---------------------------|-------------------|----------------------|
--3--3--3--3--3-5/-8-5/-7--|--0----------------|--1----5----7----8----|


                                                                 
-------------------|------------------------|-------------------|
-------------------|------------------------|-------------------|
-------------------|------------2h-5h-2-----|-------------------|
--0----------------|--1----5-------------3--|--0----------------|


                                                                    
----------------------|-------------------|------------------------|
----------------------|-------------------|------------------------|
----------------------|-------------------|------------2h-5h-2-----|
--1----5----7----8----|--0----------------|--1----5-------------3--|


                                                               
-------------------|----------------------|-------------------|
-------------------|----------------------|-------------------|
-------------------|----------------------|-------------------|
--0----------------|--1----5----7----8----|--0----------------|


                                                                    
------------------------|-------------------|----------------------|
------------------------|-------------------|----------------------|
------------2h-5h-2-----|-------------------|----------------------|
--1----5-------------3--|--0----------------|--1----5----7----8----|


                                                                            
-------------------|------------------------|----------------------|------||
-------------------|------------------------|----------------------|------||
-------------------|------------2h-5h-2--1--|--------7/-------x----|------||
--0----------------|--1----5----------------|--3--5----------------|------||

            
            
Suggest correction
Creating personal tab
Creating personal tab
You can edit any tab online and save it as your Personal.

You can edit, replace or remove any tab part or add personal notes – all changes will be seen only by you.

Personal tabs can be accessed anytime from any device, even offline.
Learn more »
Give kudos to tab author, rate the tab!
1 2 3 4 5
comments
print report bad tab
guest
You may want to rate the tab now too:
select rating
Wanna post a correction for this tab? Suggest correction