Oops, an error
Loading. Please wait.

A Star Is Born Tab

547 views 3 this week
no commentswrite comment
1 2 3 4 5
please rate
add to favorites
launch autoscroll
font size
0
reset
how to read this tab
guitar tuner
Tab Pro tools
  • play this tab
  • loop segment
  • change instrument
  • show fretboard
  • metronome
×
Best way to learn
"A Star Is Born"
Autoscroll
slow
fast
+/-
esc
set tempo
stop
Contributor
A Star Is Born - The Hawks


Intro and Verse Riff(1st guitar):
   ##   Dm          ##  F                 # C     # Csus    # C
e|-------------------------------------------------------------------|
b|--------6------------------10-----------------5---6----6----5------|
g|-----7----7--7--------10-----10--10--------5---5---5-5--5-5--5-5---|
d|---7--7----7--------10--10-----10---------5-5---5------------------|
a|-5----------------8---------------------3--------------------------|
E|-------------------------------------------------------------------|

Main Riff(1st guitar):
     Dm       F        C       Csus     C
e|-----------8---8---------------------------------------------------|
b|---------6---6------8---8---6p5---5-6-8-6-5------------------------|
g|---7-7------------5---5---------7---------------2x--then->>>>>>>---|
d|--7-7--------------------------------------------------------------|
a|-------------------------------------------------------------------|
E|-------------------------------------------------------------------|
    Dm       Dm       Dm              Dm
e|-------------------------------------------------------------------|
b|-8-8-8--6-5---5-5--6-6-6--5----------------------------------------|
g|------------7---------------7-5--5-7-5-----------------------------|
d|--------------------------------7------7-5--5-7--7-7-5-7-----------|
a|------------------------------------------7------------------------|
E|-------------------------------------------------------------------|

Chords>>Chorus:
Dm--F--C-Csus-C

SOLO:    Chords:Dm--F-------------------------------------------------|C-Csus-C
e|-13b(15)--10--------------------------------------------------------|
b|--------------13b(15)-10-10-10--------------------------------------|
g|-------------------------------10/12-10----10-10-10/12-10----10-10--|
d|----------------------------------------12----------------12--------|
a|--------------------------------------------------------------------|
E|--------------------------------------------------------------------|

e|-------------------------------------------------------------------|
b|---------13--------13----------------------------------------------|
g|-12b(14)---12b(14)----12--10h12p10-----10h12p10----10h12p10--------|
d|-----------------------------------12-----------12----------12-----|
a|-------------------------------------------------------------------|
E|-------------------------------------------------------------------|

e|-----------------------------13-15--13-15-13-15b(17)-13-15b(17)----|
b|-----------------------13-15---------------------------------------|
g|-10-12-10--12/14-12-14---------------------------------------------|
d|-------------------------------------------------------------------|
a|-------------------------------------------------------------------|
E|-------------------------------------------------------------------|

e|-13-15b(17)--13-15b(17)--13-15-13/18-17-15-17-15-18-18-18-17-17-17-|
b|-------------------------------------------------------------------|
g|-------------------------------------------------------------------|
d|-------------------------------------------------------------------|
a|-------------------------------------------------------------------|
E|-------------------------------------------------------------------|

e|-15--13------------------------------------------------------------|
b|--------15-13------------------------------------------------------|
g|--------------15-14-12---------------------------------------------|
d|-----------------------15-14-15/17-15-14-14-12---------------------|
a|-------------------------------------------------------------------|
E|-------------------------------------------------------------------|
comments
We did not receive enough feedback on this tab! Please rate:
print report bad tab
1 2 3 4 5
I want to post or [tab]
guest
You may want to rate the tab now too:
select rating
Please do not post tabs as comments. Select "correction" instead!