Oops, an error
Loading. Please wait.

Killing Your Devil Tab

32 views 3 this week
no commentswrite comment
1 2 3 4 5
please rate
add to favorites
launch autoscroll
font size
0
reset
how to read this tab
guitar tuner
Tab Pro tools
  • play this tab
  • loop segment
  • change instrument
  • show fretboard
  • metronome
Autoscroll
slow
fast
+/-
esc
set tempo
stop
>>>The Hawks - killing Your Devil<<<

Intro & Verse (Benedikt)
      G              D(sus)         C(sus)
e|----3--------------2-2-3p2---2----------------------------|
b|----0--------------3-------3------1-1--3p1----1-----------|
g|----0--------------2--------------0--------0--------------|
d|----0--------------0--------------2-----------------------|
a|----2-----------------------------3-----------------------|
E|----3-----------------------------------------------------|


Chorus (Distortion!)
e|---------------------------------------------------------|
b|---------------------------------------------------------|
g|-9-9--------------7-7------------------------------------| 4x !!!
d|-9-9--10-10--5-5--7-7------------------------------------|
a|-7-7--10-10--5-5--5-5------------------------------------|
E|------8--8---3-3-----------------------------------------|

then:
e|----------------------------------------------------------|
b|----------------------------------------------------------|
g|----------------------------------------------------------|
d|-8--8--8--8--8--8--8--8----10--10--10--10--10--10--10--10-|
a|-8--8--8--8--8--8--8--8----10--10--10--10--10--10--10--10-|
E|-5--5--5--5--5--5--5--5----8---8---8---8---8---8---8---8--|


Bridge:
e|---------------------------------------------------------|
b|---------------------------------------------------------|
g|-9-9-------------------5/7-7-----------------------------|
d|-9-9-9/10--10------5-5-5/7-7-----------------------------|
a|-7-7-9/10--10------5-5-3/5-5-----------------------------|
E|-----7/8---8-------3-3-----------------------------------|

##SOLO 1## (while Bass & Guitar 2 play "Bridge")
e|---------------------------------------------------------|
b|-------7--8---10--8-7---------------7-8p7----------------|
g|-9---9-----------------7----7---7----------9p7---9-------| 3x
d|---9--------------------------9--------------------------|
a|---------------------------------------------------------|
E|---------------------------------------------------------|


##SOLO 2##
e|-------------------------------------------------------------------------------|
b|-7-------8---------8-------8---------10------10------10-------12------12-------|
g|-9b(11)--10b(12)---10b(12)-10b(12)---12b(14)-12b(14)-12b(14)--14b(16)-14b(16)--|
d|-------------------------------------------------------------------------------|
a|-------------------------------------------------------------------------------|
E|-------------------------------------------------------------------------------|

Sorry for the rest, but i'm too lazy to figure out my OWN solo!! ^^But i'm sure it's coming soon!!!

Bridge 2:
                 Em
e|--------------------------------------------|
b|----------------3---3---3----1---1----------|
g|---------0--------0---0----0---0---0--------|
d|-----2-----2--------------------------------|
a|---2---2-----2------------------------------|
E|-0------------------------------------------|

                  C
e|--------------------------------------------|
b|----------1-------3---3---1---1-------------|
g|-----0------0-------0---0---0---0-----------|
d|---2---2------2-----------------------------|
a|-3------------------------------------------|
E|--------------------------------------------|

                 D
e|---2-------0------2------3---3---2---2------|
b|-----3-------3------3-----------------------|
g|-------2-------2------2----2---2---2---2----|
d|-0------------------------------------------|
a|--------------------------------------------|
E|--------------------------------------------|

              G/F#
e|--------------------------------------------|
b|--------------------------------------------|
g|---------------------------0----------------|
d|-----0--------0--------2-----2---2----------|  2x
a|---2---2----0---0----2---2-----2------------|
E|-3--------2--------0------------------------|


e|---------------------------------------------|
b|---------------------------------------------|
g|---------------------------------------------|
d|-2-----0-----2-------------------------------|
a|-2-----2-----2-------------------------------|
E|-0-0-2-3-3-2-0-------------------------------|
comments
We did not receive enough feedback on this tab! Please rate:
print report bad tab
1 2 3 4 5
I want to post or [tab]
guest
You may want to rate the tab now too:
select rating
Please do not post tabs as comments. Select "correction" instead!