Oops, an error
Loading. Please wait.

Down In The Valley Bass Tab

2,041 views 1 this week
no commentswrite comment
1 2 3 4 5
please rate
add to favorites
launch autoscroll
font size
0
reset
guitar tuner
Autoscroll
slow
fast
+/-
esc
set tempo
stop
Help us to improve Ultimate-Guitar.com Take our survey!
×
Author
Difficulty
novice
Intro
Guitar solo

3/4 Time
Call it one drink
G|---------|---------|---------|---------|---------|---------|---------|---------|
D|---------|---------|---------|---------|---------|---------|---------|---------| }x2
A|---------|3s-------|0s-------|3s------0|3--------|--------0|3----3---|3--------|
E|1s-------|---------|---------|---------|---------|---------|---------|---------|

Cause they both end
G|---------|---------|---------|---------|---------|---------|
D|---------|---------|---------|---------|0--------|2--------|
A|---------|---------|3--------|---------|---------|---------|
E|1--1--1--|1--------|---------|---------|---------|---------|

G|---------|---------|---------|---------|
D|---------|---------|---------|---------|
A|---------|---------|3-------0|3--3-3---|
E|1--1--1--|1--------|---------|---------|

We do it over
G|---------|---------|---------|---------|---------|---------|---------|---------|
D|---------|---------|---------|---------|---------|---------|---------|---------| }x2
A|---------|3s-------|0s-------|3-------0|3--------|--------0|3----3---|3--------|
E|1s-------|---------|---------|---------|---------|---------|---------|---------|

4/4 Time
Oh-oh
G|---------|---------|---------|---------|
D|---------|---------|---------|---------|  }x2
A|---------|0s-------|3s-------|---------|
E|1s-------|---------|---------|3s-------|



G|------------|------------|------------|------------|
D|------------|------------|------------|------------|
A|------------|0--0--0--0--|3--3--3--3-3|------------|
E|1--1--1--1--|------------|------------|3--3--3--3-3|

I know there’s
G|------------|------------|------------|------------|
D|------------|------------|------------|------------|  }x2
A|------------|0--0--0--0-0|3--3--3--3-3|------------|
E|1--1--1--1-3|------------|------------|3--3--3--3-3|

These are the places
G|------------|------------|------------|------------|
D|------------|------------|------------|------------|
A|------------|0--0--0--0--|------------|3--3--3--3-3|
E|1--1--1--1-3|-----------3|1--1--1--1-3|------------|

I am on my way
G|------------|------------|------------|------------|
D|------------|------------|------------|------------|
A|1s----------|------------|1s----------|------------|
E|------------|------------|------------|------------|

G|------------|------------|------------|------------|
D|------------|------------|------------|------------|  }x3
A|------------|0--0--0--0-0|3--3--3--3--|------------|
E|1--1--1--1-3|------------|------------|3--3--3--3-3|

One more/Oh-oh
G|--------|--------|--------|--------|
D|--------|--------|--------|--------|  }x6
A|--------|00000000|33333333|--------|
E|11111111|--------|--------|33333333|



I am on my way
G|------------|------------|------------|------------|
D|------------|------------|------------|------------|
A|------------|3s----------|------------|------------|
E|1s----------|------------|1s----------|------------|

California, Oklahoma
G|--------|--------|--------|--------|
D|--------|--------|--------|--------|  }x2
A|--------|00000000|33333333|--------|
E|11111111|--------|--------|33333333|

G|------------|------------|------------|
D|------------|------------|------------|
A|------------|3s----------|------------|
E|1s----------|------------|1s----------|

Silent for the rest

S-sustain (Whole note)

Each section divided by | represents a measure
For the most part it’s timed out correctly. I play around with it…
This is my first tab, so I’m sure there are plenty of mistakes. But it sounds pretty close to me.
Suggest correction
Give kudos to tab author, rate the tab!
1 2 3 4 5
comments
print report bad tab
guest
You may want to rate the tab now too:
select rating
Wanna post a correction for this tab? Suggest correction