Oops, an error
Loading. Please wait.

False Alarm Chords

version 2
version 2

Whole song

  • Added a capo, changed intro slightly, added alternative to simple G chord.
55 views 6 this week
no commentswrite comment
1 2 3 4 5
2 more votes to show rating
add to favorites
launch autoscroll
font size
0
reset
transpose
0
reset
simplify chords
display chords
guitar tuner
Autoscroll
slow
fast
+/-
esc
set tempo
stop
Help us to improve Ultimate-Guitar.com Take our survey!
×
Author
Difficulty
Capo
intermediate
4th fret
About this tab version
Added a capo, changed intro slightly, added alternative to simple G chord. Was this info helpful? Yes No
Capo on 4.

G  3x0003
G2 3x2003
G4 3x4003

(tab no capo)
e|--11--11--11--11---9---9---9---9---11--11--11--11--12--12--11--11----|
B|----12--12--12--12--12--12--12--12--12--12--12--12--12--12--12--12---|
G|---------------------------------------------------------------------|
D|---------------------------------------------------------------------|
A|---------------------------------------------------------------------|
E|---------------------------------------------------------------------|

e|---16---14---11-------------11--14---11---------|
B|------------------14-----14---------------------|
G|------------------------------------------------|
D|------------------------------------------------|
A|------------------------------------------------|
E|------------------------------------------------|

[Verse 1]
G          G2  G4               G2
Visions of you dance through my head
G        G2         G4           G2
Dark heroine of the books I have read
C                 D              G
Pages torn out, I made up my own world

G          G2           G4           G2
Deep in the dream, it's all built to last
G            G2    G4            G2
You pull the plug, drain me down fast
C                 D                 G
Pop my balloon, I fell from a great high

[Pre-Chorus 1]
                         Em
And I'm tired of wasting life
          D          C
Searching out going around
        D                 C        D     G
What became such a false alarm

[Chorus]
                           Em
'Cause I'm looking for the truth
         D              C
Not some tired cheap cliché
      D                     C        D     G
False treasure in a shallow pond

(tab no capo)
e|--11--11--11--11---9---9---9---9---11--11--11--11--12--12--11--11----|
B|----12--12--12--12--12--12--12--12--12--12--12--12--12--12--12--12---|
G|---------------------------------------------------------------------|
D|---------------------------------------------------------------------|
A|---------------------------------------------------------------------|
E|---------------------------------------------------------------------|

e|---16---14---11-------------11--14---11---------|
B|------------------14-----14---------------------|
G|------------------------------------------------|
D|------------------------------------------------|
A|------------------------------------------------|
E|------------------------------------------------|

[Verse 2]
G         G2           G4          G2
Fireworks blew out the top of your head
G          G2    G4         G2
Powder and spark drew me to bed
C                           D               G
Drift with you there down a dark and frozen stream
G             G2    G4           G2
I thought I'd found jewel of the Nile
G             G2    G4         G2
You're just a shiny rock in my pile
C               D            G
So many stones, stuck in my shoes

[Pre-Chorus 2]
                      Em
And I know if there's enough
         D         C
It could make up a road
           D                     C        D     G
That could lead me far from this town

[Chorus]
                           Em
'Cause I'm looking for the truth
         D               C
Not some tired cheap cliché
      D                     C        D     G
False treasure in a shallow pond

[Pre-Chorus 1]
                         Em
And I'm tired of wasting life
          D          C
Searching out going around
       D                   C
What became such a false alarm

[Outro]
D              C
Just a false alarm
D              C
Just a false alarm
D              C
Just a false alarm
D        C
A false alarm

D      C  (and repeat...)
G
Suggest correction
Give kudos to tab author, rate the tab!
1 2 3 4 5
comments
print report bad tab
guest
You may want to rate the tab now too:
select rating
Wanna post a correction for this tab? Suggest correction