Oops, an error
Loading. Please wait.

Lost In My Mind Bass Tab

version 1
version 1

Whole song

2,306 views 6 this week
no commentswrite comment
1 2 3 4 5
not so good
x 2
add to favorites
launch autoscroll
font size
0
reset
guitar tuner
Tab Pro tools
  • play this tab
  • loop segment
  • change instrument
  • show fretboard
  • metronome
×
Best way to learn
"Lost In My Mind"
Autoscroll
slow
fast
+/-
esc
set tempo
stop
Difficulty
novice
:20
|--------------------------------------------------------|
|--------------------------------------------------------|
|---5------5----5-----------------5------5--5------------|
|-5------5--------5-3--0-3-5-5-7-----7------5-3--0-3-----|

1:05
|-----------------------------------------------------------|
|-----------------------------------------------------------|
|---5-----5----5------------------5---5--5------------------|
|-5-----5--------5-3--0-3-5-5-7----7-------5-3---3-5-7-5----|

1:26
|------------------------------------------|
|------------------------------------------| 6x
|-5-5-5------5-5-5-------------------------|
|-------5-7--------5-7--3-3-3-3--3-3-5-7-5-|

2:26
|----------------------------------------------|
|----------------------------------------------| 3x
|-5-5-5---5----5-5-5---5-----------------------|
|-------7---7--------5---5--3-3-3-3--3-3-5-7-5-|

|-----------------------------|
|-----------------------------|
|-5-5-5---5----5-5-5---5------|
|-------7---7--------5---5----|

3:02
|---------------------------------------------------|
|---------------------------------------------------|
|-----------------------------------------------7---|
|-7-7-7-10-7--5-5-5-10-5--3-3--3-3--3-3-3-5-7-------|

3:21
|-------------------------------------------------|
|-------------------------------------------------| 5x
|-5-5-5-5-------5-5-5-5-------7-7-9-7-------------|
|---------7-5-7---------7-5-7---------10-7-10-----|

end
|-----------------|
|-----------------|
|-5-5----5-5----5-|
|-----------------|
comments
We did not receive enough feedback on this tab! Please rate:
print report bad tab
1 2 3 4 5
I want to post or [tab]
guest
You may want to rate the tab now too:
select rating
Please do not post tabs as comments. Select "correction" instead!