Oops, an error
Loading. Please wait.

Not The One tab

403 views 30 this week
no commentswrite comment
1 2 3 4 5
1 last vote to show rating
add to favorites
×
Save as Personal and add changes to this tab that will be seen only by you. Learn more ›
×
You can save this tab as Personal to edit and correct it or add notes. All changes will be seen only by you. Learn more »
launch autoscroll
font size
0
reset
how to read this tab
guitar tuner
edit
Autoscroll
slow
fast
+/-
esc
set tempo
stop
Author
-------------------------------------------------------------------------------
                             The Heavy - NOT THE ONE
-------------------------------------------------------------------------------
Tabbed by: usernamek

Tuning: Standard 


[Intro]

e|-----------------------------------------------------------------------------------------|
B|-----------------------------------------------------------------------------------------|
G|-----------------------------------------------------------------------------------------|
D|---------------7/9---------------------------------------7/9--7-7-7-7-6--7-9-11-------------|
A|--4-4--4-4-6-7------------------------------4-4--4-4-6-7------------------------------------|
E|---------------------5-5-5-5-4--5-4-2-0--------------------------------------------------|

                                              E        G#   B  B
e|--------------------------------------------7--------4----7--7--------------|
B|--------------------------------------------9--------4----7--7--------------|
G|--------------------------------------------9--------5----8--8--------------|
D|---------------7/9--------------------------9--------6----9--9--------------|
A|--4-4---4-6-7-------------------------------7--------6----9--9--------------|
E|---------------------5-5-5-5-4--5-4-2-0--------------4----7--7--------------|


[Verse]

    C#m
e|--4-4----4-4-4-4-----x------x------------------------------------------------------|
B|--5-5----5-5-5-5-----x------x------------------------------------------------------|
G|--6-6----6-6-6-6-----x------x------------------------------------------------------|
D|--6-6----6-6-6-6-----x------x------------------------------------------------------|
A|--4-4----4-4-4-4-----x------x------------------------------------------------------|
E|-----------------------------------------------------------------------------------|

Plays 4 times and then continues with this instead of the mutes 
    C#m  B    G#
e|--4----2----4-----------------------------------------------------------------|
B|--5----4----4-----------------------------------------------------------------|
G|--6----4----5-----------------------------------------------------------------|
D|--6----4----6-----------------------------------------------------------------|
A|--4----2----6-----------------------------------------------------------------|
E|------------4-----------------------------------------------------------------|

2nd Guitar plays this in background:

e|---------------------------------------------------------------------|
B|---------------------------------------------------------------------|
G|---------------------------------------------------------------------|
D|---------------------------------------------------------------------|
A|-7--9---7-9--------7--9---7-9----------------------------------------|
E|-------------9----------9-----9--------------------------------------|

Right before chorus:
   E         C#m  B       (This part happens quickly)
e|-7---------4----7-------4-7-9---------------------------|
B|-9---------4----7-------4-7-9---------------------------|
G|-9---------5----6-------5-8-10--------------------------|
D|-9---------6----9-------6-9-11--------------------------|
A|-7---------6----9-------6-9-11--------------------------|
E|-----------4----7-------4-7-9---------------------------|


[Chorus]

Plays through this 4 times. On the first and 3rd, he plays this:

    C#m  G#   A    E     F#m    D#    E   B    C#m 
e|--4-4--4--4--5----7-7---9-----6-6---7---7-7--9----------|
B|--5-5--4--4--5----9-9---10----8-8---9---7-7--9----------|
G|--6-6--5--5--6----9-9---11----8-8---9---8-8--9----------|
D|--6-6--6--6--7----9-9---11----8-8---7---9-9--11---------|
A|--4-4--6--6--7----7-7---9-----6-6---7---9-9--11---------|
E|-------4--4--5--------------------------7-7--9----------|


On the 2nd and 4th, he cuts the C#m at the end:

    C#m  G#   A    E     F#m    D#    E   B     
e|--4-4--4--4--5----7-7---9-----6-6---7---7-7-----------|
B|--5-5--4--4--5----9-9---10----8-8---9---7-7-----------|
G|--6-6--5--5--6----9-9---11----8-8---9---8-8-----------|
D|--6-6--6--6--7----9-9---11----8-8---7---9-9-----------|
A|--4-4--6--6--7----7-7---9-----6-6---7---9-9-----------|
E|-------4--4--5--------------------------7-7-----------|


[Verse]

(Comes in right after clock noise @ 1:43):

e|-9--9--9---9--9--9-----7-7-7----7-7-7---------------|
B|-10-10-10--10-10-10----9-9-9----7-7-7---------------|
G|-11-11-11--11-11-11----9-9-9----8-8-8---------------|
D|-11-11-11--11-11-11----9-9-9----9-9-9---------------|
A|-9--9--9---9--9--9-----7-7-7----9-9-9---------------|
E|--------------------------------7-7-7---------------|


   E         C#m  B       (This part happens quickly)
e|-7---------4----7-------4-7-9---------------------------|
B|-9---------4----7-------4-7-9---------------------------|
G|-9---------5----6-------5-8-9---------------------------|
D|-9---------6----9-------6-9-11--------------------------|
A|-7---------6----9-------6-9-11--------------------------|
E|-----------4----7-------4-7-9---------------------------|


[Chorus]

Plays this 7 times:
    C#m  G#   A    E     F#m    D#    E   B    C#m 
e|--4-4--4--4--5----7-7---9-----6-6---7---7-7--9-------|
B|--5-5--4--4--5----9-9---10----8-8---9---7-7--9-------|
G|--6-6--5--5--6----9-9---11----8-8---9---8-8--9-------|
D|--6-6--6--6--7----9-9---11----8-8---7---9-9--11------|
A|--4-4--6--6--7----7-7---9-----6-6---7---9-9--11------|
E|-------4--4--5--------------------------7-7--9-------|

Cuts the C#m on the 8th time:

    C#m  G#   A    E     F#m    D#    E   B     
e|--4-4--4--4--5----7-7---9-----6-6---7---7-7--------------|
B|--5-5--4--4--5----9-9---10----8-8---9---7-7--------------|
G|--6-6--5--5--6----9-9---11----8-8---9---8-8--------------|
D|--6-6--6--6--7----9-9---11----8-8---7---9-9--------------|
A|--4-4--6--6--7----7-7---9-----6-6---7---9-9--------------|
E|-------4--4--5--------------------------7-7--------------|


[Break]

Bass plays this (might be some palm muting over it):
e|---------------------------------------------------------|
B|---------------------------------------------------------|
G|---------------------------------------------------------|
D|---------------------------------------------------------|
A|--4-4--4-4--6-7------4-4--4-4--6--7--6-7-9---------------|
E|----------------4----------------------------------------|

e|---------------------------------------------------------|
B|---------------------------------------------------------|
G|---------------------------------------------------------|
D|---------4-6-7-9-11--------------------------------------|
A|--4-6-7--------------------------------------------------|
E|---------------------------------------------------------|

or I like to play:
e|---------------------------------------------------------|
B|---------------------------------------------------------|
G|-6-8-9-11-13-14--16--18----------------------------------|
D|---------------------------------------------------------|
A|---------------------------------------------------------|
E|---------------------------------------------------------|


[Chorus]

    C#m  G#   A    E     F#m    D#    E   B    C#m 
e|--4-4--4--4--5----7-7---9-----6-6---7---7-7--9-----------|
B|--5-5--4--4--5----9-9---10----8-8---9---7-7--9-----------|
G|--6-6--5--5--6----9-9---11----8-8---9---8-8--9-----------|
D|--6-6--6--6--7----9-9---11----8-8---7---9-9--11----------|
A|--4-4--6--6--7----7-7---9-----6-6---7---9-9--11----------|
E|-------4--4--5--------------------------7-7--9-----------|


Ends on:

e|-9---9---------------------------------------------------|
B|-9---9---------------------------------------------------|
G|-9---9---------------------------------------------------|
D|-11--11--------------------------------------------------|
A|-11--11--------------------------------------------------|
E|-9---9---------------------------------------------------|



************************************
| /   Slide up
************************************

            
            
Suggest correction
Creating personal tab
Creating personal tab
You can edit any tab online and save it as your Personal.

You can edit, replace or remove any tab part or add personal notes – all changes will be seen only by you.

Personal tabs can be accessed anytime from any device, even offline.
Learn more »
Give kudos to tab author, rate the tab!
1 2 3 4 5
comments
print report bad tab
guest
You may want to rate the tab now too:
select rating
Wanna post a correction for this tab? Suggest correction