Oops, an error
Loading. Please wait.

What Makes A Good Man bass

version 2
version 2

Whole song

Interactive

2,048 views 6 this week
1 commentread comment
1 2 3 4 5
1 last vote to show rating
add to favorites
×
Save as Personal and add changes to this tab that will be seen only by you. Learn more ›
×
You can save this tab as Personal to edit and correct it or add notes. All changes will be seen only by you. Learn more »
launch autoscroll
font size
0
reset
guitar tuner
edit
Autoscroll
slow
fast
+/-
esc
set tempo
stop
Difficulty
Standard tuning
this is for the record version, not the one played with the music video
(link here: http://www.youtube.com/watch?v=nUbYdjO7tE4)

intro:
E|--------------------------------------------------------------|
A|--------------------------------------------------------------|
D|--0/7-7-5h7-5h7---7-7-5h7-5h7---7-7-5h7-5h7---3-3-3h5-3h5-5-3-|
G|----------------5-------------5-------------5-----------------|

verse:
E|------------------------------------------------------------|
A|------------------------------------------------------------|
D|--7-7-5h7-5h7---7-7-5h7-5h7---7-7-5h7-5h7---3-3-3h5-3h5-5-3-|
G|--------------5-------------5-------------5-----------------|

chorus:
E|-----------------------------------------------------------------|
A|-----------------------------------------------------------------|
D|--7-7-5h7-5h7------5-5-3h5-3h5-----3-3-1h3-1h3-3-1-1-1-1-3-3-3-3-|
G|--------------5-7--------------3-5-------------------------------|

Hope this helps.

            
            
Suggest correction
Creating personal tab
Creating personal tab
You can edit any tab online and save it as your Personal.

You can edit, replace or remove any tab part or add personal notes – all changes will be seen only by you.

Personal tabs can be accessed anytime from any device, even offline.
Learn more »
Give kudos to tab author, rate the tab!
1 2 3 4 5
comments
print report bad tab
1 comment total.
+1 reply
amancioleroux 30 Mar 24, 2014 03:46 PM

Well done, but your tab is upside-down. The lowest string (the E string) goes at the bottom. Confusing, I know, but it's how tabs are written.

guest
Wanna post a correction for this tab? Suggest correction