Oops, an error
Loading. Please wait.

Electrocute Tab

version 2
version 2

Whole song

1,235 views 1 this week
no commentswrite comment
1 2 3 4 5
please rate
add to favorites
launch autoscroll
font size
0
reset
how to read this tab
guitar tuner
Tab Pro tools
  • play this tab
  • loop segment
  • change instrument
  • show fretboard
  • metronome
×
Best way to learn
"Electrocute"
Autoscroll
slow
fast
+/-
esc
set tempo
stop
Contributor
Electrocute by The Hellacopters

Tab by Jesus Arellano

Intro:

Guitar 1:

e--------------|
B--------------|
G--------------|
D--------------|
A-11-11-13-11--| (x8)
E-9--9--9--9---|

Intro, Verse and Rythm solo:

e--------------|
B--------------|
G--------------|
D--------------|
A-11-11-13-11--| (x4)
E-9--9--9--9---|

e--------------------|
B--------------------|
G--------------------|
D--------------------|
A-9-9-11-9--9-9-11-9-|
E-7-7-7--7--7-7-7--7-|

e--------------------|
B-11-11-11-9----9----|
G-11-11-11-9----9----|
D-11-11-11-9-11-9-11-|
A------------11---11-|
E--------------------|

Chorus:

e------------------------------|
B------------------------------|
G----------------------x-9-9-9-|
D----------------------x-9-9-9-|
A-11-11-13-11--(x3)----x-7-7-7-|
E-9--9--9--9-------------------|

e--------------|
B--------------|
G--------------|
D--------------|
A-11-11-13-11--|
E-9--9--9--9---|

e--------------------|
B-11-11-11-9----9----|
G-11-11-11-9----9----|
D-11-11-11-9-11-9-11-|
A------------11---11-|
E--------------------|

Bridge:

e-----------------------------------|
B-----------------------------------|
G----------7---------------9--------|
D-7----7-x-7-7----9----9-x-9-9--9-10|
A-7----7-x-5-7----9----9-x-7-9--9-10|
E-5----5-x---5----7----7-x---7--7-8-|

1st solo: Guitar 1

e------------------------------------------------------------|
B-12b14-12b14-12b14r12p9-12-9---------9----------------------|
G-----------------------------11-9-11---9------------------9-|
D------------------------------------------11-11-9-11-11-11--|
A------------------------------------------------------------|
E------------------------------------------------------------|

e-----------------------------------------|
B----------------------------------9------|
G-9-11-9-11b13-11b13-11b13r11p9-11---9----|
D--------------------------------------11-|
A-----------------------------------------|
E-----------------------------------------|

e-------------------------------------------------|
B-------12----------12-------12-------12----12----|
G-12h13----13-12h13----12h13----12h13----13----13-|
D-------------------------------------------------|
A-------------------------------------------------|
E-------------------------------------------------|

e--------12-14-12-14b16-14b16r14p12-14p12--------------12-14-14-12-|
B-/14-14----------------------------------14-/14-14-14-------------|
G------------------------------------------------------------------|
D------------------------------------------------------------------|
A------------------------------------------------------------------|
E------------------------------------------------------------------|

e-14b16--14b16-14b16-14b16--14b16-14b16-14b16-14b16-14b16-14b16----|
B------------------------------------------------------------------|
G------------------------------------------------------------------|
D------------------------------------------------------------------|
A------------------------------------------------------------------|
E------------------------------------------------------------------|

e-14b16r14p12-14b16-14b16-12-----------------------------------------------|
B----------------------------------14----14--16b18-16b18-16b18-16b18-16b18-|
G----------------------------13h15----15-----------------------------------|
D--------------------------------------------------------------------------|
A--------------------------------------------------------------------------|
E--------------------------------------------------------------------------|

e-----
B-14\-
G-----
D-----
A-----
E-----

2nd solo: Guitar 2

e-------------------------------------------|
B-------------------------------------------|
G-8b10-8b10-8b10r8p6---6-8-8b10r8p6---------|
D--------------------8--------------9-8-6---|
A-----------------------------------------7-|
E-------------------------------------------|

e-------|
B-------|
G-----9-|
D-/11---|
A-------|
E-------|


e--------------9---------------------------------------------------|
B----------------12-9----9--12-12-12-12-12-9\5--12-12-12-12-12-9\5-|
G-11b13-11b13---------11-------------------------------------------|
D------------------------------------------------------------------|
A------------------------------------------------------------------|
E------------------------------------------------------------------|

e--------------------------------------------------------|
B-12p11p9-12p11p9-----17------17-19-17-20p19p17-19-17----|
G-----------------/18-----/18-------------------------18-|
D--------------------------------------------------------|
A--------------------------------------------------------|
E--------------------------------------------------------|

e----------------------------------------------------------------|
B-20p19p17-19-17---------------17-19b21-19b21--19b21-17----------|
G----------------18-16-18--/18--------------------------18-16-18-|
D----------------------------------------------------------------|
A----------------------------------------------------------------|
E----------------------------------------------------------------|

e--------19-16----19-16----19p16----19p16----19p16----19p16----19b21-19b21v--|
B-----17-------17-------17-------17-------17-------17-------17---------------|
G-/18------------------------------------------------------------------------|
D----------------------------------------------------------------------------|
A----------------------------------------------------------------------------|
E----------------------------------------------------------------------------|

v=vibrato

Bridge after solo:

e------------------------|
B------------------------|
G--------9-9-9---11------|
D-11\----9-9-9-9-11-11\--|
A-11\----7-7-7-9-9--11\--|
E-9\-----------7----9\---|

e--------------------|
B-11-11-11-9----9----|
G-11-11-11-9----9----|
D-11-11-11-9-11-9-11-|
A------------11---11-|
E--------------------|

e------------------------|
B------------------------|
G--------9-9-9---11------|
D-11\----9-9-9-9-11-11\--|
A-11\----7-7-7-9-9--11\--|
E-9\-----------7----9\---|

e--------------------|
B-11-11-11-9----9----|
G-11-11-11-9----9----|
D-11-11-11-9-11-9-11-|
A------------11---11-|
E--------------------|

Chorus (x2)

Chorus guitar 1 (2:29):

e--------------------|
B-14-14-14....-------|
G-13-13-13....-------|
D-11-11-11....-------|
A--------------------|
E--------------------|

Ending:

e--------------------|
B-11-11-11-9----9----|
G-11-11-11-9----9----|
D-11-11-11-9-11-9-11-| (x3)
A------------11---11-|
E--------------------|

Final Chord C#5
comments
We did not receive enough feedback on this tab! Please rate:
print report bad tab
1 2 3 4 5
I want to post or [tab]
guest
You may want to rate the tab now too:
select rating
Please do not post tabs as comments. Select "correction" instead!