Oops, an error
Loading. Please wait.

Im In The Band Bass Tab

version 1
version 1

Whole song

Interactive

2,632 views 1 this week
no commentswrite comment
1 2 3 4 5
please rate
add to favorites
launch autoscroll
font size
0
reset
guitar tuner
Tab Pro tools
  • play this tab
  • loop segment
  • change instrument
  • show fretboard
  • metronome
Autoscroll
slow
fast
+/-
esc
set tempo
stop
Difficulty
Tuning
novice
D# G# C# F# A# D#
The Hellacopters - I'm in the band bass tabs

Intro  (0:07-0:12)

G|------------------------------------------------|
D|------------------------------------------------|     2x
A|-----7-7------7-7------7-7------7-7-------------|
E|----------9-7------9-7------9-7------9-7--------|

Vers

(0:12-0:24)

G|------------------------------------------------|
D|-----1-1-----1-1------1-1-------1-1-------------|   4x
A|----------3-1------3-1------3-1------3-1--------|
E|------------------------------------------------|

Before Chorus

(0:24-0:29)

G|--------------------------------------------------------------|
D|--------------------------------------------------------------|
A|---4--4-4--4-4-4--2--2-2--2-2-2--0--0-0--0-0-0----------------|
E|--------------------------------------------------------------|


(0:29-0:30)

G|-----------------------------|
D|-----------------------------|
A|-----7-7------7-7------------|
E|----------9-7------9-7-------|

(0:30-0:32)


G|-------------------------------------------|
D|-------------------------------------------|
A|---4--4-4--4-4-4--2--2-2--2-2-2------------|
E|-------------------------------------------|

(0:33-0:36)

G|----------------------------------------------------|
D|----------------------------------------------------|
A|---0-0-2-0--0-0-2-0--0-0-2-0--0-0-2-0---------------|
E|----------------------------------------------------|

The little thing before chorus

(0:36-0:38)

G|-----------------------------------------|
D|-----------------------------------------|
A|-----7--7--5----7--7---------------------|
E|---------------5-------------------------|

Chorus

(0:39-0:44)

G|---------------------------------------------------------|
D|---------------------------------------------------------|
A|----------4-4-4-4-4------------9-9-9-9-------------------|
E|----5-7---------------5-5-7-7----------------------------|

(0:45-0:49)

G|--------------------------------------------------|
D|--------------------------------------------------|
A|---------------4-4-4-----------7------------------|
E|----5-5-7-7---------5-5-7-7-----------------------|

Intro again

(0:49-0:55)

Vers again

(0:55-1:07)

Before Chorus again

(1:07-1:20)

Chorus again

(1:20-1:32)

Bridge 1 little solo

(1:32-1:49)

G|----------------------------------------------------------------|  3x
D|----------------------------------------------------------------|
A|-----10---12-------7-7------7-7------7-7-----7-7----------------|
E|---------------------------9-7------9-7------9-7-----9-7--------|

Before big solo

(1:49-1:55)

G|--------------------------------------------------|
D|--------------------------------------------------|
A|-----10---12--------------------------------------|
E|------------------7-7-7-7-7-7-7-7-7-7-------------|

Bridge 2 big solo

(1:55-2:11)

G|-------------------------------------------------|
D|-------------------------------------------------|       3x
A|---5-5------9-9-9-9--5-5------9-9-9-9------------|
E|--------5-5-----------------5-5------------------|

(2:11-2:15)
G|----------------------------------------------------|
D|----------------------------------------------------|
A|----5-5------9-9-9-9--------------------------------|
E|---------5-5------------7-7-7-7-7-7-7-7-7-----------|

Chorus 2x

(2:16-2:39)


(2:39-2:44) Same as intro

G|--------------------------------------------------|
D|--------------------------------------------------|     2x
A|----7-7------7-7------7-7------7-7----------------|
E|---------9-7------9-7------9-7------9-7-----------|

A little difference

(2:44-2:55)

G|-------------------------------------------------|
D|-------------------------------------------------|      4x
A|----7-7------7-7---------------------------------|
E|---------9-7------9-7--5-5-5-5-5-5---------------|

Before ending

(2:56-3:07)

G|-------------------------------------------------|
D|-------------------------------------------------|      4x
A|-------------------0-0-2-0-2-0-------------------|
E|---0-0-1-2-3-4-----------------------------------|

The end

(3:08-3:18)

G|------------------------------------------------------------|
D|------------------------------------------------------------|    2x
A|------7--7--7--10-10-10-10-10-10-10-10--7-------------------|
E|--0---------------------------------------------------------|

This is not 100% but it is almost right.

Tabs made by A.D :)
comments
We did not receive enough feedback on this tab! Please rate:
print report bad tab
1 2 3 4 5
I want to post or [tab]
guest
You may want to rate the tab now too:
select rating
Please do not post tabs as comments. Select "correction" instead!