Oops, an error
Loading. Please wait.

Im In The Band Tab

version 1
version 1

Whole song

Interactive

18,960 views 9 this week
1 commentread comment
1 2 3 4 5
accurate
x 3
add to favorites
launch autoscroll
font size
0
reset
how to read this tab
guitar tuner
Tab Pro tools
  • play this tab
  • loop segment
  • change instrument
  • show fretboard
  • metronome
×
Best way to learn
"Im In The Band"
Autoscroll
slow
fast
+/-
esc
set tempo
stop
Artist: Hellacopters
Song: I'm in the band
Tuning: ½ lower
Tabber: iOnas
Comment: Do the rest someone!


|intro|

Guitar I
------------------------:
-12---------------------:
-11b--9-----9-----------:
---------7--------------:
------------------------:
------------------------:

Guitar II
---------------------------------:
-------------9----10----9---10---:
-------------9-----9----9----9---:
-------------7-----9----9----9---:
-------------7-----7----7----7---:
---------------------------------:

|Vers I|
----------------------------------:
----9------10-------7------9------:
----9-------9-------7------9------:
----9-------9-------7------9------: x2
----7-------7-------5------7------:
----------------------------------:


|Vers II|
------0----------0---------0--------0---------|
--------0----------0---------0--------0-------|
----------------------------------------------|
---6----------4---------2---------------------|
-4----------2---------0----------2------------|
-------------------------------0--------------|


------0----------0-------------------------:
--------0----------0-----------------------:
-------------------------------------------:
---6----------4------------2-4-2-4-4-2-4---:
-4----------2--------------0-0-0-0-0-0-0---:
-------------------------------------------:

|Pre-chorus|
-----------------------------------------------:
-----------------------------------------------:
---9-9----7-------9-9--------------------------:
---9-9----7--7----9-9--------------------------:
---7-7----5--7----7-7--------------------------:
-------------5---------------------------------:


|Chorus|
-----------------------------------------------|
-----------------------------------------------|
-------------------------9---------------------|
---7--9--11------7---9---9--(-----9-9--------)-|
---7--9--11------7---9---7--(9-11-----11-9--7)-|
---5--7---9------5---7-------------------------|


----------------------------:
----------------------------:
-------------------------9--:
---7--9--11------7---9---9--:
---7--9--11------7---9---7--:
---5--7---9------5---7------:




Solo (pt. II)
:-----12---------12---------12--------12-------|
:--------15---------15---------15--------15----|
:---14b--------14b--------14b-------14b--------|
:----------------------------------------------|
:----------------------------------------------|
:----------------------------------------------|

-15p--12h---15p--12h------12---15p--12h---15p--12h------12----15p--12h---15p--12h------12-|
----------------------15----------------------------15-----------------------------15-----|
------------------------------------------------------------------------------------------|
------------------------------------------------------------------------------------------|
------------------------------------------------------------------------------------------|
------------------------------------------------------------------------------------------|
comments
We did not receive enough feedback on this tab! Please rate:
print report bad tab
1 2 3 4 5
1 comment total.
0 reply
DYLANSAD11 wrote on September 21 2008, 04:12 pm

YOUR AMERICAS #1 HERO NOW, YOU KILLED OSAMA BIN LADEN WITH THIS TAB MAN

I want to post or [tab]
guest
You may want to rate the tab now too:
select rating
Please do not post tabs as comments. Select "correction" instead!