Oops, an error
Loading. Please wait.

Im In The Band Tab

version 3
version 3

Whole song

Interactive

6,114 views 9 this week
1 commentread comment
1 2 3 4 5
excellent!
x 3
add to favorites
launch autoscroll
font size
0
reset
how to read this tab
guitar tuner
Tab Pro tools
  • play this tab
  • loop segment
  • change instrument
  • show fretboard
  • metronome
Autoscroll
slow
fast
+/-
esc
set tempo
stop
hello, i've tried to fix this song perfect, and it is!!!!

Tuning: Eb,Ab,Db,Gb,Bb,eb... ...and i've tried to fix both guitars...

h=hammeron
p=pull-off
~=long tone
\\\\=slide down

Intro:            Verse:

/-----------      /--------------------------------|
/--12-------      /--- 10~-------------------------|
/--11-9---9-      /-9~-9~-7~-9~--------------------| x2
/-------7---      /-9~-7~-7~-9~--------------------|
/-----------      /-7~----5~-7~--------------------|
/-----------      /--------------------------------|

bridge 1:

/-----0-------0-------0-------0--------------------|
/-------0-------0-------0-------0------------------|
/--------------------------------------------------| x2
/---6-------4-------2------------------------------|
/-4-------2-------0---------2----------------------|
/-------------------------0------------------------|

bridge 2:

/-------------------------------------------------|
/-------------------------------------------------|
/-------------------------------------------------|
/-2-2-4-2-2-2-4-2-2-2-4-2-2-2-4-------------------|
/-0-0-0-0-0-0-0-0-0-0-0-0-0-0-0-------------------|
/-------------------------------------------------|


bridge 3:

/--------------|
/--------------|
/-9-9-7---9-9--|
/-9-9-7-7-9-9--|
/-7-7-5-7-7-7--|
/-------5------|

chorus:

/---------------------------------------------------------------|
/---------------------------------------------------------------|
/-----6-6-6-6-6---------9-----9-9-9-9-----------6-6---------9~--|
/-7-9-6-6-6-6-6-7-7-9-9-9-----9-9-9-9-7-7-9-9---6-6-7-7-9-9-9~--|
/-7-9-4-4-4-4-4-7-7-9-9-7-----7-7-7-7-7-7-9-9-4-4-4-7-7-9-9-7~--|
/-5-7-----------5-5-7-7---5h7---------5-5-7-7-------5-5-7-7-----|


verse
bridge 1
bridge 2
bridge 3


chorus 2:

/-----------------------------------------------------------------|
/-----------------------------------------------------------------|
/-----6-6-6-6-6---------9-----9-9-9-9-----------6-6---------7~-9~-|
/-7-9-6-6-6-6-6-7-7-9-9-9-----9-9-9-9-7-7-9-9---6-6-7-7-9-9-7~-9~-|
/-7-9-4-4-4-4-4-7-7-9-9-7-----7-7-7-7-7-7-9-9-4-4-4-7-7-9-9-5~-7~-|
/-5-7-----------5-5-7-7---5h7---------5-5-7-7-------5-5-7-7-------|


solo part 1 (guitar 1):                 guitar 2:

/----------------------------------     /---------------|
/---9------------------------------     /---------------|
/----------------------------------     /---------------|
/-9---9-7--------------------------     /-9~------------|
/---------10-7----7------7~--------     /-9~------------|
/--------------10---10-7-----------     /-7~------------|


solo part 2 (guitar 1):             guitar 2:

/---------------------------------  /-------------------|
/---------------------------------  /-------------------|
/--16b--16b--16-13-----13---------  /-------------------|
/------------------16-----16------  /-9~----------------|
/---------------------------------  /-9~----------------|
/---------------------------------  /-7~----------------|

solo part 3 (guitar 1):                  guitar 2:

/-17-17-17-17-17p15-17p15-17-17--------- /---------------|
/--------------------------------------- /---------------|
/--------------------------------------- /---------------|
/--------------------------------------- /-9~------------|
/--------------------------------------- /-9~------------|
/--------------------------------------- /-7~------------|

solo riff (guitar 1):

/---------------------------------------|
/---------------------------------------|
/-7-7-----------------------------------|
/-7-7------7------2---------------------|
/-5-5------5------2---------------------|
/----------5------0---------------------|

solo (guitar 2):

/-10-12p10-------12p10-------12-12-12-15-12-15-------15-12-15-12-------|
/----------12p10-------12-10-------------------15-12-------------15-12-|
/----------------------------------------------------------------------|
/----------------------------------------------------------------------|
/----------------------------------------------------------------------|
/----------------------------------------------------------------------|

/15-12-12-12~-19-19-17-15-17-15-17-17~-12-12~-12-10-12-10-12-10------------|
/---------------------------------------------------------------12-11-9-10-|
/--------------------------------------------------------------------------|
/--------------------------------------------------------------------------|
/--------------------------------------------------------------------------|
/--------------------------------------------------------------------------|

bridge 5:                                   continuing bridge 5:

/------------------------------------------ /--------------------|
/------------------------------------------ /--------------------|
/-7-7-----9-9-9-9-7-7-----9-9-9-9 x3        /--------------------|
/-7-7-7-7-9-9-9-9-7-7-7-7-9-9-9-9           /-9-9-9-9-9-9-9-9-9--|
/-5-5-7-7-7-7-7-7-5-5-7-7-7-7-7-7           /-9-9-9-9-9-9-9-9-9--|
/-----5-5-------------5-5------------------ /-7-7-7-7-7-7-7-7-7--|

chorus

bridge 6:

/----------------------------------------------------|
/----------------------------------------------------|
/----------------------------------------------------|
/-------------2-2-4-2-4-2-------------2-2-4-2-4-2----| x2
/-------------0-0-0-0-0-0-------------0-0-0-0-0-0----|
/-0-0-1-2-3-4-------------0-0-1-2-3-4----------------|

ending:

/-------------------------------------------------------|
/-------------------------------------------------------|
/---9-9-9-12-12-12-12-12-12-12-12~-9\\\\----------------|
/-2-9-9-9-12-12-12-12-12-12-12-12~-9\\\\----------------| and thats it!!!!
/-2-7-7-7-10-10-10-10-10-10-10-10~-7\\\\----------------|
/-0-----------------------------------------------------|
comments
We did not receive enough feedback on this tab! Please rate:
print report bad tab
1 2 3 4 5
1 comment total.
0 reply
Spangel wrote on March 5 2013, 11:31 am

solo part 2 (guitar 1) continues on:

/------------------------------------------------
/------------------------------------------------
/--16b--16b--16-13-----13------------------------
/------------------16-----16--16-14------16--14--
/-----------------------------------16-----------
/------------------------------------------------

I want to post or [tab]
guest
You may want to rate the tab now too:
select rating
Please do not post tabs as comments. Select "correction" instead!