Oops, an error
Loading. Please wait.

Where The Action Is Tab

version 1
version 1

Whole song

Interactive

1,072 views 1 this week
no commentswrite comment
1 2 3 4 5
poor
x 1
add to favorites
launch autoscroll
font size
0
reset
how to read this tab
guitar tuner
Tab Pro tools
  • play this tab
  • loop segment
  • change instrument
  • show fretboard
  • metronome
Autoscroll
slow
fast
+/-
esc
set tempo
stop
Contributor
Artist: The Hellacopters
Song/Title: Where The Action Is
Album: Payin' The Dues
Tuning: standard  EADGBe


Riff 1:  2x
e-------------------------------|--------------------------- -------|
B-------------------------------|--------------------------- -------|
G-------------------------------|--------------------------- -------|
D--4---4-4--4-4--4-4-------5-7--|--5---5-5--5-5--5-5-------- 5-7----|
A--2---2-2--2-2--2-2--4-5--3-5--|--3---3-3--3-3--3-3--4-5--- 3-5----|
E---------------------2-3-------|---------------------2-3--- -------|

During this gtr 2 plays:
e----------------------------------------|
B----------------------------------------|
G----------------------------------------|
D----7b---7h5--5--7h5--------5-----------|
A----------------------5h7-------7-------|
E----------------------------------------|

Then
e------------------------------------|
B------------------------------------|
G------------------------------------|
D--4-----------------4---------------|
A--2---feedback------2--4--5---------|
E-----------------------2--3---------|


Verse 1:

Riff 1a:
e-------------------------------|--------------------------- -------|
B-------------------------------|--------------------------- -------|
G-------------------------------|--------------------------- -------|
D--4---4-4--4-4--4-4-------5-7--|--5---5-5--5-5--5-5-------- 5-7----|
A--2---2-2--2-2--2-2--4-5--3-5--|--3---3-3--3-3--3-3--4-5--- 3-5----|
E---------------------2-3-------|---------------------2-3--- -------|

e-------------------------------|--------------------------- -------|
B-------------------------------|--------------------------- -------|
G-------------------------------|--------------------------- -------|
D--4---4-4--4-4--4-4-------5-7--|--5---5-5--5-5--5-5---5-5-- 5-5----|
A--2---2-2--2-2--2-2--4-5--3-5--|--3---3-3--3-3--3-3---3-3-- 3-3----|
E---------------------2-3-------|--------------------------- -------|

Chorus 1: (Here comes the Riff of the century)

Riff 3: Everyone shouts "We there, where the action is?!"
e----------------------|-----------------------|----------- -----------------|
B----------------------|-----------------------|----------- -----------------|
G----------------------|-----------------------|----------- -----------------|
D--5-----------5-------|--5----------5---------|--9--9-9--- 5---12---7-------|
A--3-3--6--3------5-6--|--3-3--6--3-----5-6-3--|--7--7-7--- 3---10---5-------|
E----------------------|-----------------------|----------- -----------------|

e----------------------|-----------------------|----------- -----------------|
B----------------------|-----------------------|----------- -----------------|
G----------------------|-----------------------|----------- -----------------|
D--5-----------5-------|--5----------5---------|--9--9-9--- 5---12---7-------|
A--3-3--6--3------5-6--|--3-3--6--3-----5-6-3--|--7--7-7--- 3---10---5-------|
E----------------------|-----------------------|----------- -----------------|

e---------------------------------|------------------------- ----|
B---------------------------------|------------------------- ----|
G---------------------------------|------------------------- ----|
G----------------------------5-7--|------------------------- ----|
D--5-----------5---------5-7------|--9--9-9---5---12---7---- ----|
A--3-3--6--3------5-6-3-----------|--7--7-7---3---10---5---- ----|
E---------------------------------|------------------------- ----|

e----------------------|-----------------------|----------- -----------------|
B----------------------|-----------------------|----------- -----------------|
G----------------------|-----------------------|----------- -----------------|
D--5-----------5-------|--5----------5---------|--9--9-9--- 5---12---7-------|
A--3-3--6--3------5-6--|--3-3--6--3-----5-6-3--|--7--7-7--- 3---10---5-------|
E----------------------|-----------------------|----------- -----------------|

After these, comes this:

Gtr 1 plays Riff 1 2x


During this gtr 2 plays this little solo part(that's
probably wrong)

e----------------------------------------------------------- ---------------|
B----------------------------------------------------------- ---------------|
G-11--11-11-11-11-----------------------------15-15-15-15--- 12--12/9-------|
D-11--11-11-11-11...-plays a lot of time then-15-15-15-15--- 12--12/9--9----|
A----------------------------------------------------------- ---------------|
E----------------------------------------------------------- ---------------|

e----------------------------------------------------------- ----|
B----------------------------------------------------------- ----|
G----------------------------------------------------------- ----|
D-9h11-9---9/7--7----------7---9--11-----9h7--7------------- ----|
A---------------------7h9----9-------------------7--7h9----- ----|
E----------------------------------------------------------- ----|


Verse 2:

Riff 1b:

e------------------------------|--------------------------- -------|
B------------------------------|--------------------------- -------|
G------------------------------|--------------------------- -------|
D--4-4--4---4-4--4--------5-7--|--5-5---5---5-5---5-------- 5-7----|
A--2-2--2---2-2--2---4-5--3-5--|--3-3---3---3-3---3--4-5--- 3-5----|
E--------------------2-3-------|---------------------2-3--- -------|
   ..       ..                    ..        ..

e------------------------------|-------------------------- -------------------|
B------------------------------|-------------------------- -------------------|
G------------------------------|----------------------5-5- 5-5--7-5-----------|
D--4-4--4---4-4--4--------5-7--|--5-5---5---5-5---5------- ----------5-7--5-7-|
A--2-2--2---2-2--2---4-5--3-5--|--3-3---3---3-3---3------- ---------------3-5-|
E--------------------2-3-------|-------------------------- -------------------|
   ..       ..                    ..        ..

Riff 1a


Chorus 2:

Same as Chorus 1.


Bridge
e----------------------|----------------------------------- --------|
B----------------------|----------------------------------- --------|
G----------------------|----------------------------------- --------|
D---9-------9----------|----9--------9---9-9-x-9-x-9-x-9-9- 9-9-----|
A---7---3---7----11b---|----7---3----7---7-7-x-7-x-7-x-7-7- 7-7-----|
E-------1--------------|--------1-------------------------- --------|


Solo with Riff 2 2x.


Verse 3:

Riff 1b
Riff 1a


Chorus 3:
Same as Chorus 1.

End (Smash some bottles :) )
comments
We did not receive enough feedback on this tab! Please rate:
print report bad tab
1 2 3 4 5
I want to post or [tab]
guest
You may want to rate the tab now too:
select rating
Please do not post tabs as comments. Select "correction" instead!