Oops, an error
Loading. Please wait.

Breakfast Club bass

1,071 views 3 this week
no commentswrite comment
1 2 3 4 5
x 3
add to favorites
×
Save as Personal and add changes to this tab that will be seen only by you. Learn more ›
×
You can save this tab as Personal to edit and correct it or add notes. All changes will be seen only by you. Learn more »
launch autoscroll
font size
0
reset
guitar tuner
edit
Autoscroll
slow
fast
+/-
esc
set tempo
stop
Band: The Herd
Song: Breakfast Club
Tabber: David

Intro
G ----4--4-------4----------2-------------------------------------------|
D --------4h5-0------4h5-0----------------------------------------------|
A --2----------2-----------0---4h5--0-2---------------------------------|
E ----------------------------------------------------------------------|


G ----------------4----------2-----------------------------------------|
D ---------4h5--------4h5-----------------4----------------------------|
A --2-2-2-------2----------0---4h5--0-2---5----------------------------|
E -------------0----------0--------------------------------------------|


Verse part 1
G ----4------------4-----------2---------------------------------------|
D ---------4h5-0-------4h5-0-----------------4-------------------------|
A --2------------2-----------0----4h5--0-2---5-------------------------|
E ---------------------------------------------------------------------|

Verse part 2
G ----4------------4-----------2---------------------------------------|
D ---------4h5---------4h5-0-----------------4-------------------------|
A --2------------2----------------4h5----2---5-------------------------|
E -------------0-------------0---------0-------------------------------|

Through out the song the bassist alternates between part 1 and part 2 of the verse, 
leaving out the chord at the end of the verse

Interlude
G ---------------------------------------------------------------------|
D --------22--2-------00--0--------------------------------------------|
A -2-2---2-----2-2---2-----2-2--------0-0---2-2------------------------|
E -------------------------------2-2------02-----02--------------------|


G ---------------------------------------------------------------------|
D --------22--2-------00--0--------------------------------------------|
A -2-2---2-----2-2---2-----2-2-------0-0----2-2--00--------------------|
E -------------------------------22-0-----2----------------------------|


That’s it, the song is basically just the intro and then combinations of the interlude 
the verses, ending with the interlude.
Suggest correction
Creating personal tab
Creating personal tab
You can edit any tab online and save it as your Personal.

You can edit, replace or remove any tab part or add personal notes – all changes will be seen only by you.

Personal tabs can be accessed anytime from any device, even offline.
Learn more »
Give kudos to tab author, rate the tab!
1 2 3 4 5
comments
print report bad tab
guest
You may want to rate the tab now too:
select rating
Wanna post a correction for this tab? Suggest correction