Oops, an error
Loading. Please wait.

Where I Want To Be tab

291 views 1 this week
no commentswrite comment
1 2 3 4 5
3 more votes to show rating
add to favorites
×
Save as Personal and add changes to this tab that will be seen only by you. Learn more ›
×
You can save this tab as Personal to edit and correct it or add notes. All changes will be seen only by you. Learn more »
launch autoscroll
font size
0
reset
how to read this tab
guitar tuner
edit
Autoscroll
slow
fast
+/-
esc
set tempo
stop
A great song from as of yet relatively unknown band! Great fun to play
I tabbed this by ear so may not be 100% perfect

Guitar 1 (Clean)
Intro
(0.00 - 0.14)
Play to the rhythm of the song
e--------------------------------------------------------------------------|
B--------------------------------------------------------------------------|
G------------------4---4-4--4---4-4----------------------------------------|
D----2---2-----2-2-4---4-4--4---4-4---1---1---1-1-2--2-2--2-4--4-4--4------|
A----2---2-----2-2-2---2-2--2---2-2---1---1---1-1-2--2-2--2-4--4-4--4------|
D----2---2-----2-2--------------------1---1---1-1-2--2-2--2-4--4-4--4------|

e---------------------------------------------------------------|
B---------------------------------------------------------------|
G------------------4---4-4--4---4-4-----------------------------|
D----2---2-----2-2-4---4-4--4---4-4---4---4---4-4-4----4-4-4----|
A----2---2-----2-2-2---2-2--2---2-2---4---4---4-4-4----4-4-4----|
D----2---2-----2-2--------------------4---4---4-4-4----4-4-4----|

Verse 1
(0.14 - 0.40)
e--------------------------------------------------------------------------|
B--------------------------------------------------------------------------|
G--------------------------------------------------------------------------|
D--6---6-6-4---4-4-2---2-2-4---4-4-6---6-6-4---4-4-2---2-2-5-5-5-5-7-7-7-7-|
A--6---6-6-4---4-4-2---2-2-4---4-4-6---6-6-4---4-4-2---2-2-5-5-5-5-7-7-7-7-|
D--6---6-6-4---4-4-2---2-2-4---4-4-6---6-6-4---4-4-2---2-2-5-5-5-5-7-7-7-7-|

Chorus 1
(0.40 - 1.05)
e--------------------------------------------------------------------------|
B--------------------------------------------------------------------------|
G------------------4---4-4--4---4-4----------------------------------------|
D----2---2-----2-2-4---4-4--4---4-4---1---1---1-1-2--2-2--2-4--4-4--4------|
A----2---2-----2-2-2---2-2--2---2-2---1---1---1-1-2--2-2--2-4--4-4--4------|
D----2---2-----2-2--------------------1---1---1-1-2--2-2--2-4--4-4--4------|

e---------------------------------------------------------------|
B---------------------------------------------------------------|
G------------------4---4-4--4---4-4-----------------------------|
D----2---2-----2-2-4---4-4--4---4-4---4---4---4-4-4----4-4-4----|
A----2---2-----2-2-2---2-2--2---2-2---4---4---4-4-4----4-4-4----|
D----2---2-----2-2--------------------4---4---4-4-4----4-4-4----|

e--------------------------------------------------------------------------|
B--------------------------------------------------------------------------|
G------------------4---4-4--4---4-4----------------------------------------|
D----2---2-----2-2-4---4-4--4---4-4---1---1---1-1-2--2-2--2-4--4-4--4------|
A----2---2-----2-2-2---2-2--2---2-2---1---1---1-1-2--2-2--2-4--4-4--4------|
D----2---2-----2-2--------------------1---1---1-1-2--2-2--2-4--4-4--4------|

e-------------------------------------------------------------|
B-------------------------------------------------------------|
G------------------4---4-4--4---4-4---------------------------|
D----2---2-----2-2-4---4-4--4---4-4---4---4---4-4-4----4~-----|
A----2---2-----2-2-2---2-2--2---2-2---4---4---4-4-4----4~-----|
D----2---2-----2-2--------------------4---4---4-4-4----4~-----|
Verse 2
(1.05 - 1.43)
e-------------------------------------------------------------------------|
B-------------------------------------------------------------------------|
G-------------------------------------------------------------------------|
D----6---6-6-4---4-4-2---2-2-4---4-4-6---6-6-4---4-4-2---2-2-4---4-4------|
A----6---6-6-4---4-4-2---2-2-4---4-4-6---6-6-4---4-4-2---2-2-4---4-4------|
D----6---6-6-4---4-4-2---2-2-4---4-4-6---6-6-4---4-4-2---2-2-4---4-4------|

e---------------------------------------------------------------|
B---------------------------------------------------------------|
G---------------------------------------------------------------|
D----6-------6-6-4------4-4-2------2-2-5--5--5--5--7--7--7--7---|
A----6-------6-6-4------4-4-2------2-2-5--5--5--5--7--7--7--7---|
D----6-------6-6-4------4-4-2------2-2-5--5--5--5--7--7--7--7---|

Chorus 2
(1.43 - 2.08)
e--------------------------------------------------------------------------|
B--------------------------------------------------------------------------|
G------------------4---4-4--4---4-4----------------------------------------|
D----2---2-----2-2-4---4-4--4---4-4---1---1---1-1-2--2-2--2-4--4-4--4------|
A----2---2-----2-2-2---2-2--2---2-2---1---1---1-1-2--2-2--2-4--4-4--4------|
D----2---2-----2-2--------------------1---1---1-1-2--2-2--2-4--4-4--4------|

e---------------------------------------------------------------|
B---------------------------------------------------------------|
G------------------4---4-4--4---4-4-----------------------------|
D----2---2-----2-2-4---4-4--4---4-4---4---4---4-4-4----4-4-4----|
A----2---2-----2-2-2---2-2--2---2-2---4---4---4-4-4----4-4-4----|
D----2---2-----2-2--------------------4---4---4-4-4----4-4-4----|

e--------------------------------------------------------------------------|
B--------------------------------------------------------------------------|
G------------------4---4-4--4---4-4----------------------------------------|
D----2---2-----2-2-4---4-4--4---4-4---1---1---1-1-2--2-2--2-4--4-4--4------|
A----2---2-----2-2-2---2-2--2---2-2---1---1---1-1-2--2-2--2-4--4-4--4------|
D----2---2-----2-2--------------------1---1---1-1-2--2-2--2-4--4-4--4------|

e------------------------------------------------------------|
B------------------------------------------------------------|
G------------------4---4-4--4---4-4--------------------------|
D----2---2-----2-2-4---4-4--4---4-4---4---4---4-4-4----4-----|
A----2---2-----2-2-2---2-2--2---2-2---4---4---4-4-4----4-----|
D----2---2-----2-2--------------------4---4---4-4-4----4-----|

Bridge
(2.08 - 2.34)
e-------------------------------------------------------------------|
B-------------------------------------------------------------------|
G--4-4-4-4-4-4-4-4--------------------------------------------------|
D--4-4-4-4-4-4-4-4-6-6-6-6-6-6-6-6-2-2-2-2-2-2-2-2-4-4-4-4-4-4-4-4--|   (x2)
A--2-2-2-2-2-2-2-2-6-6-6-6-6-6-6-6-2-2-2-2-2-2-2-2-4-4-4-4-4-4-4-4--|
D------------------6-6-6-6-6-6-6-6-2-2-2-2-2-2-2-2-4-4-4-4-4-4-4-4--|

Pre-Chorus
(2.34 - 2.47)
Play softly                                          Play quickly and loudly
e--------------------------------------------------------------------------|
B----------------4-2-0-2---------------------2-----------------------------|
G-------4--------------------------4-----4-----4--0------------------------|
D---2---4---1------------2--4--2-----2---2---------6---6-6-6-6-6-6-6-6-6-6-|
A---2---2---1------------2--4--2------2--2--2------6---6-6-6-6-6-6-6-6-6-6-|
D---2-------1--1---------2--4--2--2----------------6---6-6-6-6-6-6-6-6-6-6-|

Chorus 3
(2.47 - 3.24)
e--------------------------------------------------------------------------|
B--------------------------------------------------------------------------|
G------------------4---4-4--4---4-4----------------------------------------|
D----2---2-----2-2-4---4-4--4---4-4---1---1---1-1-2--2-2--2-4--4-4--4------|
A----2---2-----2-2-2---2-2--2---2-2---1---1---1-1-2--2-2--2-4--4-4--4------|
D----2---2-----2-2--------------------1---1---1-1-2--2-2--2-4--4-4--4------|

e---------------------------------------------------------------|
B---------------------------------------------------------------|
G------------------4---4-4--4---4-4-----------------------------|
D----2---2-----2-2-4---4-4--4---4-4---4---4---4-4-4----4-4-4----|
A----2---2-----2-2-2---2-2--2---2-2---4---4---4-4-4----4-4-4----|
D----2---2-----2-2--------------------4---4---4-4-4----4-4-4----|

e--------------------------------------------------------------------------|
B--------------------------------------------------------------------------|
G------------------4---4-4--4---4-4----------------------------------------|
D----2---2-----2-2-4---4-4--4---4-4---1---1---1-1-2--2-2--2-4--4-4--4------|
A----2---2-----2-2-2---2-2--2---2-2---1---1---1-1-2--2-2--2-4--4-4--4------|
D----2---2-----2-2--------------------1---1---1-1-2--2-2--2-4--4-4--4------|

e------------------------------------------------------------|
B------------------------------------------------------------|
G------------------4---4-4--4---4-4--------------------------|
D----2---2-----2-2-4---4-4--4---4-4---4---4---4-4-4----4-----|
A----2---2-----2-2-2---2-2--2---2-2---4---4---4-4-4----4-----|
D----2---2-----2-2--------------------4---4---4-4-4----4-----|

e--------------------------------------------------------------------------|
B--------------------------------------------------------------------------|
G------------------4---4-4--4---4-4----------------------------------------|
D----2---2-----2-2-4---4-4--4---4-4---1---1---1-1-2--2-2--2-4--4-4--4------|
A----2---2-----2-2-2---2-2--2---2-2---1---1---1-1-2--2-2--2-4--4-4--4------|
D----2---2-----2-2--------------------1---1---1-1-2--2-2--2-4--4-4--4------|

e------------------------------------------------------------------|
B------------------------------------------------------------------|
G------------------4---4-4--4---4-4--------------------------------|
D----2---2-----2-2-4---4-4--4---4-4---4---4---4-4-4-4---4-----4----|
A----2---2-----2-2-2---2-2--2---2-2---4---4---4-4-4-4---4-----4----|
D----2---2-----2-2--------------------4---4---4-4-4-4---4-----4----|

End
(3.25 - 3.58)
e-----------------|
B-----------------|
G------4~---------|
D------4~---------|
A------2~---------|
D-----------------|


Guitar 2
Intro
(0.00 - 0.14)
e--------------------------------------------------------------|
B--------------------------------------------------------------|
G-------12b--12b--11-8-11-----7b--7b--6-4---4-------4--4-6-----|
D-----------------------------------------6----6---6--6--------|
A--------------------------------------------------------------|
D--------------------------------------------------------------|

e---------------------------------------------------------------|
B---------------------------------11--11-11-11--11-11-11--12----|
G-------12b--12b--11-8-11---------------------------------------|
D---------------------------------------------------------------|
A---------------------------------------------------------------|
D---------------------------------------------------------------|

Verse 1
(0.14 - 0.26)
No Guitar
(0.26 - 0.40)
Play on the off-beats
e------------------------------------------------------------------------|
B------------------------------------------------------------------------|
G-13-13-13-13-13\11-11-11-11-11-11\9-9-9-9-9-9/12-12-12-12-14-14-14-14---|
D-13-13-13-13-13\11-11-11-11-11-11\9-9-9-9-9-9/12-12-12-12-14-14-14-14---|
A-11-11-11-11-11\9--9--9--9--9---9\7-7-7-7-7-7/10-10-10-10-12-12-12-12---|
D------------------------------------------------------------------------|

Chorus 1
(0.40 - 1.05)
e--------------------------------------------------------------------------|
B--------------------------------------------------------------------------|
G--9---9---9-9-16--16-16--16---16-16---8---8---8-8-9--9-9--9-11--11-11--11-|
D--9---9---9-9-16--16-16--16---16-16---8---8---8-8-9--9-9--9-11--11-11--11-|
A--7---7---7-7-14--14-14--14---14-14---6---6---6-6-7--7-7--7-9---9--9---9--|
D--------------------------------------------------------------------------|

e-------------------------------------------------------------------------|
B-------------------------------------------------------------------------|
G----9---9-----9-9-16---16-16--16---16-16--11--11--11-11-11---11-11-11----|
D----9---9-----9-9-16---16-16--16---16-16--11--11--11-11-11---11-11-11----|
A----7---7-----7-7-14---14-14--14---14-14--9---9---9--9--9----9--9--9-----|
D-------------------------------------------------------------------------|

Verse 2
(1.05 - 1.17)
No Guitar
(1.17 - 1.43)
e--------------------------------------------------------------------------|
B--------------------------------------------------------------------------|
G-13---13---13--13-13\11---11---11---11--11-11\9-9-9-9-9-9/11-11-11-11-11--|
D-13---13---13--13-13\11---11---11---11--11-11\9-9-9-9-9-9/11-11-11-11-11--|
A-11---11---11--11-11\9----9----9----9----9--9\7-7-7-7-7-7/9---9--9--9--9--|
D--------------------------------------------------------------------------|

e--------------------------------------------------------------------------|
B--------------------------------------------------------------------------|
G-13--13--13--13-13\11-11-11-11-11-11\9-9-9-9-9-9/12-12-12-12-14-14-14-14--|
D-13--13--13--13-13\11-11-11-11-11-11\9-9-9-9-9-9/12-12-12-12-14-14-14-14--|
A-11--11--11--11-11\9---9--9--9--9--9\7-7-7-7-7-7/10-10-10-10-12-12-12-12--|
D--------------------------------------------------------------------------|

Chorus 2
(1.43 - 2.08)
e--------------------------------------------------------------------------|
B--------------------------------------------------------------------------|
G--9---9---9-9-16--16-16--16---16-16---8---8---8-8-9--9-9--9-11--11-11--11-|
D--9---9---9-9-16--16-16--16---16-16---8---8---8-8-9--9-9--9-11--11-11--11-|
A--7---7---7-7-14--14-14--14---14-14---6---6---6-6-7--7-7--7--9--9--9---9--|
D--------------------------------------------------------------------------|

e-------------------------------------------------------------------------|
B-------------------------------------------------------------------------|
G----9---9-----9-9-16---16-16--16---16-16--11--11--11-11-11---11-11-11----|
D----9---9-----9-9-16---16-16--16---16-16--11--11--11-11-11---11-11-11----|
A----7---7-----7-7-14---14-14--14---14-14---9---9--9--9--9----9--9--9-----|
D-------------------------------------------------------------------------|

e--------------------------------------------------------------------------|
B--------------------------------------------------------------------------|
G--9---9---9-9-16--16-16--16---16-16---8---8---8-8-9--9-9--9-11--11-11--11-|
D--9---9---9-9-16--16-16--16---16-16---8---8---8-8-9--9-9--9-11--11-11--11-|
A--7---7---7-7-14--14-14--14---14-14---6---6---6-6-7--7-7--7--9---9--9---9-|
D--------------------------------------------------------------------------|

e------------------------------------------------------------------|
B------------------------------------------------------------------|
G----9---9-----9-9-16---16-16--16---16-16--11--11--11-11-11---11---|
D----9---9-----9-9-16---16-16--16---16-16--11--11--11-11-11---11---|
A----7---7-----7-7-14---14-14--14---14-14---9---9---9--9--9----9---|
D------------------------------------------------------------------|

Bridge
(2.08 - 2.34)
e----------------------------------------------|
B----------------------------------------------|
G-16--16-16-16--16-16-16--16-16-16--16-16-16---|
D-16--16-16-16--16-16-16--16-16-16--16-16-16---|
A-14--14-14-14--14-14-14--14-14-14--14-14-14---|
D----------------------------------------------|

e----------------------------------------------|
B----------------------------------------------|
G-13--13-13-13--13-13-13--13-13-13--13-13-13---|
D-13--13-13-13--13-13-13--13-13-13--13-13-13---|
A-11--11-11-11--11-11-11--11-11-11--11-11-11---|
D----------------------------------------------|

e--------------------------------------------------------------------------|
B--------------------------------------------------------------------------|
G-9--9-9-9--9-9-9--9-9-9--9-9-9-11--11-11-11--11-11-11--11-11-11--11-11-11-|
D-9--9-9-9--9-9-9--9-9-9--9-9-9-11--11-11-11--11-11-11--11-11-11--11-11-11-|
A-7--7-7-7--7-7-7--7-7-7--7-7-7--9---9--9--9---9--9--9---9--9--9--9---9--9-|
D--------------------------------------------------------------------------|

e----------------------------------------------|
B----------------------------------------------|
G-16--16-16-16--16-16-16--16-16-16--16-16-16---|
D-16--16-16-16--16-16-16--16-16-16--16-16-16---|
A-14--14-14-14--14-14-14--14-14-14--14-14-14---|
D----------------------------------------------|

e----------------------------------------------|
B----------------------------------------------|
G-13--13-13-13--13-13-13--13-13-13--13-13-13---|
D-13--13-13-13--13-13-13--13-13-13--13-13-13---|
A-11--11-11-11--11-11-11--11-11-11--11-11-11---|
D----------------------------------------------|

e--------------------------------------------------------------------------|
B--------------------------------------------------------------------------|
G-9--9-9-9--9-9-9--9-9-9--9-9-9-11--11-11-11--11-11-11--11-11-11--11-11-11-|
D-9--9-9-9--9-9-9--9-9-9--9-9-9-11--11-11-11--11-11-11--11-11-11--11-11-11-|
A-7--7-7-7--7-7-7--7-7-7--7-7-7--9---9--9--9---9--9--9---9--9--9--9---9--9-|
D--------------------------------------------------------------------------|

Pre-Chorus
(2.34 - 2.47)
Play softly                                      Play quickly and loudly
e--------------------------------------------------------------------------|
B--------------------------------------------------------------------------|
G-9---16---8---9---11---9----16-----11-----11-11-11-11-11-11-11-11-11-11---|
D-9---16---8---9---11---9----16-----11-----11-11-11-11-11-11-11-11-11-11---|
A-7---14---6---7----9---7----14------9------9--9--9--9--9--9--9--9--9--9---|
D--------------------------------------------------------------------------|

Chorus 3
(2.47 - 3.24)
e--------------------------------------------------------------------------|
B--------------------------------------------------------------------------|
G--9---9---9-9-16--16-16--16---16-16---8---8---8-8-9--9-9--9-11--11-11--11-|
D--9---9---9-9-16--16-16--16---16-16---8---8---8-8-9--9-9--9-11--11-11--11-|
A--7---7---7-7-14--14-14--14---14-14---6---6---6-6-7--7-7--7--9---9--9---9-|
D--------------------------------------------------------------------------|

e-------------------------------------------------------------------------|
B-------------------------------------------------------------------------|
G----9---9-----9-9-16---16-16--16---16-16--11--11--11-11-11---11-11-11----|
D----9---9-----9-9-16---16-16--16---16-16--11--11--11-11-11---11-11-11----|
A----7---7-----7-7-14---14-14--14---14-14---9---9---9--9--9----9--9--9----|
D-------------------------------------------------------------------------|

e--------------------------------------------------------------------------|
B--------------------------------------------------------------------------|
G--9---9---9-9-16--16-16--16---16-16---8---8---8-8-9--9-9--9-11--11-11--11-|
D--9---9---9-9-16--16-16--16---16-16---8---8---8-8-9--9-9--9-11--11-11--11-|
A--7---7---7-7-14--14-14--14---14-14---6---6---6-6-7--7-7--7--9---9--9---9-|
D--------------------------------------------------------------------------|

e------------------------------------------------------------------|
B------------------------------------------------------------------|
G----9---9-----9-9-16---16-16--16---16-16--11--11--11-11-11---11---|
D----9---9-----9-9-16---16-16--16---16-16--11--11--11-11-11---11---|
A----7---7-----7-7-14---14-14--14---14-14---9---9---9--9--9----9---|
D------------------------------------------------------------------|

e--------------------------------------------------------------------------|
B--------------------------------------------------------------------------|
G--9---9---9-9-16--16-16--16---16-16---8---8---8-8-9--9-9--9-11--11-11--11-|
D--9---9---9-9-16--16-16--16---16-16---8---8---8-8-9--9-9--9-11--11-11--11-|
A--7---7---7-7-14--14-14--14---14-14---6---6---6-6-7--7-7--7--9---9--9---9-|
D--------------------------------------------------------------------------|

e------------------------------------------------------------------------|
B------------------------------------------------------------------------|
G----9---9-----9-9-16---16-16--16---16-16--11--11--11-11-11---11---11----|
D----9---9-----9-9-16---16-16--16---16-16--11--11--11-11-11---11---11----|
A----7---7-----7-7-14---14-14--14---14-14---9---9---9--9--9----9----9----|
D------------------------------------------------------------------------|

End
(3.25 - 3.58)
e---------------|
B---------------|
G----16~--------|
D----16~--------|
A----14~--------|
D---------------|

Thanks for checking out the tab!
If you have any corrections or comments then feel free to let me know :)
Enjoy!

            
            
Suggest correction
Creating personal tab
Creating personal tab
You can edit any tab online and save it as your Personal.

You can edit, replace or remove any tab part or add personal notes – all changes will be seen only by you.

Personal tabs can be accessed anytime from any device, even offline.
Learn more »
Give kudos to tab author, rate the tab!
1 2 3 4 5
comments
print report bad tab
guest
You may want to rate the tab now too:
select rating
Wanna post a correction for this tab? Suggest correction