Oops, an error
Loading. Please wait.

The Iroc-Z Song Tab

version 2
version 2

Whole song

803 views 6 this week
no commentswrite comment
1 2 3 4 5
please rate
add to favorites
launch autoscroll
font size
0
reset
how to read this tab
guitar tuner
Tab Pro tools
  • play this tab
  • loop segment
  • change instrument
  • show fretboard
  • metronome
×
Best way to learn
"The Iroc-z Song"
Autoscroll
slow
fast
+/-
esc
set tempo
stop
Contributor
Tuning
D# G# C# F# A# D#
The Iroc-Z Song by The High Speed Scene
Chords and notation by Daniel M.

Tuning: half-step down
Note:   F  |133xxx
        F* |x8(10)(10)xx (basically F an octave higher...)
 
Riff 1 
e|----------|
B|----------|
G|----------|
D|----------|
A|-------0--|
E|-2-0-2----|

 Riff 2
   F#         G   B   E       G   B   A
e|----------|----------------------------|
B|----------|----------------------------|
G|----------|----------------------------|
D|----------|-0---1---2---4---5---9---11-|
A|-------0--|----------------------------|
E|-2-0-2----|----------------------------|

 Riff 3
   D    A    B   F#  D   A   B F# D    A    B   F#  A   G   F
e|--------------------------------------------------------------|
B|--------------------------------------------------------------|
G|--------------------------------------------------------------|
D|-12x4-11x4-9x4-8x4-7x4-5x4-4x8--12x4-11x4-9x4-8x4-7x4-5x4-3x8-|
A|--------------------------------------------------------------|
E|--------------------------------------------------------------|

Solo
   F*     C          D      A      F*     C       D          A
e|-----------------------------|--------------------------------|
B|-----------------------------|------------------9-10-11-12-14-|
G|-10--10-9--------------------|-7/10--10-9-10-12---------------|
D|----------12-10-11-12--12-11-|--------------------------------|
A|-----------------------------|--------------------------------|
E|-----------------------------|--------------------------------|

   A#          A           G       F       D#     D      C#
e|------------------------------------|-------------------------|
B|-13-15-13-11-10-11-10---------11-10-|-10----------------------|
G|----------------------12-10\7-------|----12--12-10--10-9---\2-|
D|------------------------------------|-------------------------|
A|------------------------------------|-------------------------|
E|------------------------------------|-------------------------|

 Riff 4
   D    A    B   F#  D   A   B F# D    A    B   F#  A   G   F
e|--------------------------------------------------------------|
B|--------------------------------------------------------------|
G|--------------------------------------------------------------|
D|-12x4-11x4-9x4-8x4-7x4-5x4-4x8--12x4-11x4-9x4-8x4-7x4-5x4-4x8-|
A|--------------------------------------------------------------|
E|--------------------------------------------------------------|
__________________________________________________________________________

D            A
He Rocks his IROC-Z
B           F#
He rocks it well
D            A               B                F#
He rocks his Oakleys and his Oakley loaf from hell
G             B             E
He's spinning donuts out in front of Taco Bell
G             B              A
The girls are wanting him so bad and he can tell

D           A
I shred for hella days
B          F#
You know I can
D          A                B            F#
For finger tapping yeah Van Halen is the man
G           B             E
He's making fun because I play in marching band
G            B              A             (Riff 1)
He's getting action while I get my farmer tan

D            A         B     F# (Riff 1)
Hey, there's ego in my way
D         A             B             F# (Riff 1)
Lucky for me I have the patience of a saint
G     B       E                              E F#
Ready, steady, these days are high and heady
G               B            A
There's so much more left to say

But there's ego in my way

D    A    B    F# (Riff 1)

D            A
He plays the ladies man
B           F#
He plays it cool
D          A           B              F# (Lead does Riff 2)
I play my guitar and I play it by the rules
G             B              E
You think you rock so hard I challenge you to duel
       G            B            A
After school after school after school
                (Riff 1)
Let me hear you say

D            A         B     F# (Riff 1)
Hey, there's ego in my way
D         A             B             F# (Riff 1)
Lucky for me I have the patience of a saint
G     B       E                              E F#
Ready, steady, these days are high and heady
G               B            A
There's so much more left to say
                         D (Riff3) A         B
But there's ego in my way (there's ego in my way)
        F#           D         A         B
There's ego in my way (there's ego in my way)
        F#           D         A         B
There's ego in my way (there's ego in my way)
            F#         A    G
Oh, there's ego in my way.
F
Oh yea yea yea, let's rock!

(Solo) F*   C   D   A X2

A#  A   G   F   D#  D   C#

D            A         B     F# (Riff 1)
Hey, there's ego in my way
D         A             B             F# (Riff 1)
Lucky for me I have the patience of a saint
G     B       E                              E F#
Ready, steady, these days are high and heady
G               B            A
There's so much more left to say
                         D(Riff4) A         B
But there's ego in my way (theres ego in my way)
        F#           D         A         B
There's ego in my way (there's ego in my way)
        F#           D         A         B
There's ego in my way (there's ego in my way)
        F#           D         A         B
There's ego in my way (there's ego in my way)
            F#                D
Oh yea yea, there's ego in my way

[End]
comments
We did not receive enough feedback on this tab! Please rate:
print report bad tab
1 2 3 4 5
I want to post or [tab]
guest
You may want to rate the tab now too:
select rating
Please do not post tabs as comments. Select "correction" instead!