Oops, an error
Loading. Please wait.

The Iroc-Z Song tab

version 3
version 3

Whole song

339 views 1 this week
no commentswrite comment
1 2 3 4 5
2 more votes to show rating
add to favorites
×
Save as Personal and add changes to this tab that will be seen only by you. Learn more ›
×
You can save this tab as Personal to edit and correct it or add notes. All changes will be seen only by you. Learn more »
launch autoscroll
font size
0
reset
how to read this tab
guitar tuner
edit
Autoscroll
slow
fast
+/-
esc
set tempo
stop
For those of us old enough to remember the MVP Baseball 2005 soundtrack...

-------------------------------------------------------------------------------
                             The IROC-Z Song - The High Speed Scene
-------------------------------------------------------------------------------
Tabbed by: John L.

Tuning: Down 1/2 step (Eb)

Guitar 1: Rhythm
Guitar 2: Lead

*Note that everything in the verse is palm-muted until the beat preceding the chorus.

**The position for the Bb power chord is completely arbitrary/interchangeable. 
Use whichever feels more comfortable in the context of the passage:

eb|----      eb|----
Bb|----      Bb|----
Gb|----      Gb|-4--
Db|-9--  or  Db|-4--
Ab|-9--      Ab|-2--
Eb|-7--      Eb|----


************************************

GUITAR 1

Intro: (Bar 2, Beat 4)


eb|----------|
Bb|----------|
Gb|----------|
Db|----------|
Ab|----------|
Eb|-2-0-2-/5-|
   PM . . . . 
    4 e & a


Verse I:


     "He rocks his IROC-Z..."     |  "He rocks his Oakleys..."
  
eb|-------------------------------|-------------------------------|
Bb|-------------------------------|-------------------------------|
Gb|-7-----------------------------|-7-----------------------------|
Db|-7-(x4)-7------9---------------|-7-(x4)-7------9---------------|
Ab|-5------7-(x4)-9-(x4)----------|-5------7-(x4)-9-(x4)----------|
Eb|--------5------7------2-0-2-/5-|--------5------7------2-0-2-/5-|
   PM . . . . . . . . . . . . . . . . . . . . . . . . . . . . . . 
    1      2      3      4          1      2      3      4


     "He's spinning donuts..."   |  "The girls are wanting him..."
  
eb|------------------------------|-------------------------------|
Bb|------------------------------|-------------------------------|
Gb|--------4---------------------|-------------------------------|
Db|-5------4-(x4)-2----------4-4-|-5------9------7---------------|
Ab|-5-(x4)-2------2-(x6)-----4-4-|-5-(x4)-9-(x4)-7-(x4)----------|
Eb|-3-------------0----------2-2-|-3------7------5------2-0-2-/5-|
   PM . . . . . . . . . . . . . . . . . . . . . . . . . . . . . . 
    1      2      3      4 e & a   1      2      3      4   


     "I shred for hella days..."  |  "Four-fingered tapping..."
  
eb|-------------------------------|-------------------------------|
Bb|-------------------------------|-------------------------------|
Gb|-7-----------------------------|-7-----------------------------|
Db|-7-(x4)-7------9---------------|-7-(x4)-7------9---------------|
Ab|-5------7-(x4)-9-(x4)----------|-5------7-(x4)-9-(x4)----------|
Eb|--------5------7------2-0-2-/5-|--------5------7------2-0-2-/5-|
   PM . . . . . . . . . . . . . . . . . . . . . . . . . . . . . . 
    1      2      3      4          1      2      3      4


     "He's making fun because..."|  "He's getting action..."
  
eb|------------------------------|-------------------------------|
Bb|------------------------------|-------------------------------|
Gb|--------4---------------------|-------------------------------|
Db|-5------4-(x4)-2----------4-4-|-5------9------7------4-4-4-/7-|
Ab|-5-(x4)-2------2-(x6)-----4-4-|-5-(x4)-9-(x4)-7-(x4)-4-4-4-/7-|
Eb|-3-------------0----------2-2-|-3------7------5------2-0-2-/5-|
   PM . . . . . . . . . . . . . . . . . . . . . . . . . 
    1      2      3      4         1      2      3      4 e & a


Chorus:


     "Hey, there's ego..."        |  "Lucky for me..."
  
eb|-------------------------------|-------------------------------|
Bb|-------------------------------|-------------------------------|
Gb|-7-----------------------------|-7-----------------------------|
Db|-7-(x4)-7------9------4-4-4-/7-|-7-(x4)-7------9------4-4-4-/7-|
Ab|-5------7-(x4)-9-(x4)-4-4-4-/7-|-5------7-(x4)-9-(x4)-4-4-4-/7-|
Eb|--------5------7------2-0-2-/5-|--------5------7------2-0-2-/5-|

    1      2      3      4          1      2      3      4

    
     "Ready, steady, these days..." |  "There's so much more..."

eb|---------------------------------|---------------------------------|
Bb|---------------------------------|---------------------------------|
Gb|---------4-4---------------------|---------------------------------|
Db|-5-5-----4-4-----2-2----------4--|-5-5-----9-9-----7---------------|
Ab|-5-5-----2-2-----2-2----------4--|-5-5-----9-9-----7-(x8)----------|
Eb|-3-3-------------0-0----------2--|-3-3-----7-7-----5---------------|

    1 e & a 2       3       4 e & a   1       2       3       4 


     "...way."

eb|-------------------------------|
Bb|-------------------------------|
Gb|-7-----------------------------|
Db|-7-(x4)-7------9------4-4-4-/7-|
Ab|-5------7-(x4)-9-(x4)-4-4-4-/7-|
Eb|--------5------7------2-0-2-/5-|

    1      2      3      4


Verse II:


     "He plays the ladies man..." |  "I play my guitar..."
  
eb|-------------------------------|-------------------------------|
Bb|-------------------------------|-------------------------------|
Gb|-7-----------------------------|-7-----------------------------|
Db|-7-(x4)-7------9---------------|-7-(x4)-7------9---------------|
Ab|-5------7-(x4)-9-(x4)----------|-5------7-(x4)-9-(x4)----------|
Eb|--------5------7------2-0-2-/5-|--------5------7------2-0-2-/5-|
   PM . . . . . . . . . . . . . . . . . . . . . . . . . . . . . . 
    1      2      3      4          1      2      3      4


     "You think you rock..."    |  "...school, after school..."
  
eb|-----------------------------|-------------------------------|
Bb|-----------------------------|-------------------------------|
Gb|--------4--------------------|-------------------------------|
Db|-5------4-(x4)-2------4------|-5------9------7------4-4-4-/7-|
Ab|-5-(x4)-2------2-(x4)-4-(x4)-|-5-(x4)-9-(x4)-7-(x4)-4-4-4-/7-|
Eb|-3-------------0------2------|-3------7------5------2-0-2-/5-|
   PM . . . . . . . . . . . . . . . . . . . . . . . . . 
    1      2      3      4        1      2      3      4


Chorus:


     "Hey, there's ego..."        |  "Lucky for me..."
  
eb|-------------------------------|-------------------------------|
Bb|-------------------------------|-------------------------------|
Gb|-7-----------------------------|-7-----------------------------|
Db|-7-(x4)-7------9------4-4-4-/7-|-7-(x4)-7------9------4-4-4-/7-|
Ab|-5------7-(x4)-9-(x4)-4-4-4-/7-|-5------7-(x4)-9-(x4)-4-4-4-/7-|
Eb|--------5------7------2-0-2-/5-|--------5------7------2-0-2-/5-|

    1      2      3      4          1      2      3      4

    
     "Ready, steady, these days..." |  "There's so much more..."

eb|---------------------------------|---------------------------------|
Bb|---------------------------------|---------------------------------|
Gb|---------4-4---------------------|---------------------------------|
Db|-5-5-----4-4-----2-2----------4--|-5-5-----9-9-----7---------------|
Ab|-5-5-----2-2-----2-2----------4--|-5-5-----9-9-----7-(x8)----------|
Eb|-3-3-------------0-0----------2--|-3-3-----7-7-----5---------------|

    1       2        3       4        1       2       3       4


     "...way. There's ego in..."  |  "...way. There's ego in..."

eb|-------------------------------|-------------------------------|
Bb|-------------------------------|-------------------------------|
Gb|-7-----------------------------|-7-----------------------------|
Db|-7-(x4)-7------9------4-4-4-/7-|-7-(x4)-7------9------4-4-4-/7-|
Ab|-5------7-(x4)-9-(x4)-4-4-4-/7-|-5------7-(x4)-9-(x4)-4-4-4-/7-|
Eb|--------5------7------2-0-2-/5-|--------5------7------2-0-2-/5-|

    1      2      3      4          1      2      3      4


     "...way. Oh, there's ego..." |  "...way. Aw, yeah, yeah. Let's rock!"

eb|-------------------------------|-----------------------------|
Bb|-------------------------------|-----------------------------|
Gb|-7-----------------------------|-----------------------------|
Db|-7-(x4)-7------9------4-4-4-/7-|-8---------------------------|
Ab|-5------7-(x4)-9-(x4)-4-4-4-/7-|-8-(x16)---------------------|
Eb|--------5------7------2-0-2-/5-|-6---------------------------|

    1      2      3      4          1      2      3      4


Solo:


eb|-----------------------------|-----------------------------|
Bb|-----------------------------|-----------------------------|
Gb|--------5------7-------------|--------5------7-------------|
Db|-3------5-(x4)-7-(x4)-7------|-3------5-(x4)-7-(x4)-7------|
Ab|-3-(x4)-3------5------7-(x4)-|-3-(x4)-3------5------7-(x4)-|
Eb|-1--------------------5------|-1--------------------5------|

    1      2      3      4        1      2      3      4


                                |  "Let me hear you say..."
eb|-----------------------------|-----------------------------|
Bb|-----------------------------|-----------------------------|
Gb|-----------------------------|-8------7------6-------------|
Db|-8------7------5------3------|-8-(x4)-7-(x4)-7-(x8)--------|
Ab|-8-(x4)-7-(x4)-5-(x4)-3-(x4)-|-6------5------7-------------|
Eb|-6------5------3------1------|---------------5-------------|

    1      2      3      4        1      2      3      4


Chorus:


     "Hey, there's ego..."        |  "Lucky for me..."
  
eb|-------------------------------|-------------------------------|
Bb|-------------------------------|-------------------------------|
Gb|-7-----------------------------|-7-----------------------------|
Db|-7-(x4)-7------9------4-4-4-/7-|-7-(x4)-7------9------4-4-4-/7-|
Ab|-5------7-(x4)-9-(x4)-4-4-4-/7-|-5------7-(x4)-9-(x4)-4-4-4-/7-|
Eb|--------5------7------2-0-2-/5-|--------5------7------2-0-2-/5-|

    1      2      3      4          1      2      3      4

    
     "Ready, steady, these days..." |  "There's so much more..."

eb|---------------------------------|---------------------------------|
Bb|---------------------------------|---------------------------------|
Gb|---------4-4---------------------|---------------------------------|
Db|-5-5-----4-4-----2-2----------4--|-5-5-----9-9-----7---------------|
Ab|-5-5-----2-2-----2-2----------4--|-5-5-----9-9-----7-(x8)----------|
Eb|-3-3-------------0-0----------2--|-3-3-----7-7-----5---------------|

    1       2        3       4        1       2       3       4


     "...way. There's ego in..."  |  "...way. There's ego in..."

eb|-------------------------------|-------------------------------|
Bb|-------------------------------|-------------------------------|
Gb|-7-----------------------------|-7-----------------------------|
Db|-7-(x4)-7------9------4-4-4-/7-|-7-(x4)-7------9------4-4-4-/7-|
Ab|-5------7-(x4)-9-(x4)-4-4-4-/7-|-5------7-(x4)-9-(x4)-4-4-4-/7-|
Eb|--------5------7------2-0-2-/5-|--------5------7------2-0-2-/5-|

    1      2      3      4          1      2      3      4


     "...way. There's ego in..."  |  "...way. Aw, yeah, there's ego..."

eb|-------------------------------|-------------------------------|
Bb|-------------------------------|-------------------------------|
Gb|-7-----------------------------|-7-----------------------------|
Db|-7-(x4)-7------9------4-4-4-/7-|-7-(x4)-7------9------4-4-4-/7-|
Ab|-5------7-(x4)-9-(x4)-4-4-4-/7-|-5------7-(x4)-9-(x4)-4-4-4-/7-|
Eb|--------5------7------2-0-2-/5-|--------5------7------2-0-2-/5-|

    1      2      3      4          1      2      3      4


     "...way.                   ||

eb|-----------------------------||
Bb|-----------------------------||
Gb|-7---------------------------||
Db|-7---------------------------||
Ab|-5---------------------------||
Eb|-----------------------------||

    1      2      3      4 


********************

GUITAR 2

[Tacet during Verse I and first chorus]

Verse II:


     "He plays the ladies man..." |  "I play my guitar..."
  
eb|-------------------------------|--------------------------------|
Bb|-------------------------------|--------------------------------|
Gb|-------------------------------|--------------------------------|
Db|-------------------------------|--------------------------------|
Ab|-------------------------------|--------------------------------|
Eb|-------------------------------|---------------------0-2-0-2-/5-|
                                                        tr 
    1      2      3      4          1      2      3 e & a 4 


     "You think you rock..."        |  "...school, after school..."
  
eb|---------------------------------|---------------------------------|
Bb|---------------------------------|---------------------------------|
Gb|---------------------------------|---------4-4-4-4-6-6-6-6-6-6-6-6-|
Db|-0-0-0-0-1-1-1-1-2-2-2-2-4-4-4-4-|-5-5-5-5-------------------------|
Ab|---------------------------------|---------------------------------|
Eb|---------------------------------|---------------------------------|
                                                         
    1       2       3       4         1       2       3       4 


Chorus:

[Tacet during first 4 bars]

Cue: "There's so much more left to say, but there's ego in my..."


     "way. There's ego in..."       |  "...way. There's ego in..."
  
eb|---------------------------------|---------------------------------|
Bb|---------------------------------|---------------------------------|
Gb|-7-7-7-7-6-6-6-6-4-4-4-4-3-3-3-3-|-2-2-2-2-0-0-0-0-----------------|
Db|---------------------------------|-----------------4-4-4-4-4-4-4-4-|
Ab|---------------------------------|---------------------------------|
Eb|---------------------------------|---------------------------------|
                                                         
    1       2       3       4         1       2       3       4 


     "...way. Oh, there's ego..."   |  "...way. Aw, yeah, yeah. Let's rock!"
  
eb|---------------------------------|---------------------------------|
Bb|---------------------------------|---------------------------------|
Gb|-7-7-7-7-6-6-6-6-4-4-4-4-3-3-3-3-|-2-2-2-2-0-0-0-0-----------------|
Db|---------------------------------|-----------------3-3-3-3-3-3-3-3-|
Ab|---------------------------------|---------------------------------|
Eb|---------------------------------|---------------------------------|
                                                         
    1       2       3       4         1       2       3       4 


Solo:


eb|----------------------------------------------------------------------------------|
Bb|----------------------------------------------------------------------------------|
Gb|-/10-------------9h10p9-----------------------------------------------------------|
Db|--------------------------12---10---11---12--------11b12r11------------------11/--|
Ab|----------------------------------------------------------------------------------|
Eb|----------------------------------------------------------------------------------|
     ~ ~ ~ ~ ~ ~ ~                                            ~ ~ ~ ~ ~ ~ ~ ~ ~
     1    e    &    a    2   e    &    a    3    e    &    a    4    e    &    a


eb|----------------------------------------------------------------------------------|
Bb|----------------------------------------------------12---13-----------------------|
Gb|--------------------------------12---13---14---15---------------------------------|
Db|-/15------------------14---15-----------------------------------------------------|
Ab|----------------------------------------------------------------------------------|
Eb|----------------------------------------------------------------------------------|
     tr . . . . . . . . . . . . . . . . . . . . . .  .       ~ ~ ~ ~ ~ ~ ~ ~ ~ ~ ~ ~
     1    e    &    a    2    e    &    a    3    e    &    a    4    e    &    a


eb|---------------------------------------------------------------------------------------|
Bb|-13---15---13h15p13--------------------------------------------------------------------|
Gb|----------------------15---14---15---14---12-------------15---14-------------12b14r12--|
Db|-----------------------------------------------15---12---------------------------------|
Ab|---------------------------------------------------------------------------------------|
Eb|---------------------------------------------------------------------------------------|
                                                                                      ~ ~
    1    e    &    (&)   a    2    e    &    a    3    e    &    a    4    e    &    a


eb|----------------------------------------------------------------------------------|
Bb|----------------------------------------------------------------------------------|
Gb|------------12---10-------------10---9-------------\2-----------------------------|
Db|----------------------------------------------------------------------------------|
Ab|----------------------------------------------------------------------------------|
Eb|----------------------------------------------------------------------------------|
     
     1    e    &    a    2    e    &    a    3    e    &    a    4    e    &    a


Chorus:

[Tacet during first four bars]

Cue: "There's so much more left to say, but there's ego in my..."


     "way. There's ego in..."       |  "...way. There's ego in..."
  
eb|---------------------------------|---------------------------------|
Bb|---------------------------------|---------------------------------|
Gb|-7-7-7-7-6-6-6-6-4-4-4-4-3-3-3-3-|-2-2-2-2-0-0-0-0-----------------|
Db|---------------------------------|-----------------4-4-4-4-4-4-4-4-|
Ab|---------------------------------|---------------------------------|
Eb|---------------------------------|---------------------------------|
                                                         
    1       2       3       4         1       2       3       4 


     "...way. Oh, there's ego..."   |  "...way. Aw, yeah, there's ego..."
  
eb|---------------------------------|---------------------------------|
Bb|---------------------------------|---------------------------------|
Gb|-7-7-7-7-6-6-6-6-4-4-4-4-3-3-3-3-|-2-2-2-2-0-0-0-0-----------------|
Db|---------------------------------|-----------------4-4-4-4-4-4-4-4-|
Ab|---------------------------------|---------------------------------|
Eb|---------------------------------|---------------------------------|
                                                         
    1       2       3       4         1       2       3       4 


     "...way."                      ||

eb|---------------------------------||
Bb|---------------------------------||
Gb|---------------------------------||
Db|-0-------------------------------||
Ab|---------------------------------||
Eb|---------------------------------||
                                                         
    1       2       3       4


************************************

| /   slide up
| \   slide down
| PM   palm mute
| tr   tremolo pick
| h   hammer-on
| p   pull-off
| ~   vibrato
| b   bend
| r   release bend

************************************


            
            
Suggest correction
Creating personal tab
Creating personal tab
You can edit any tab online and save it as your Personal.

You can edit, replace or remove any tab part or add personal notes – all changes will be seen only by you.

Personal tabs can be accessed anytime from any device, even offline.
Learn more »
Give kudos to tab author, rate the tab!
1 2 3 4 5
comments
print report bad tab
guest
You may want to rate the tab now too:
select rating
Wanna post a correction for this tab? Suggest correction