Oops, an error
Loading. Please wait.

Histionics tab

version 1
version 1

Whole song

1,768 views 1 this week
1 commentread comment
1 2 3 4 5
x 3
add to favorites
×
Save as Personal and add changes to this tab that will be seen only by you. Learn more ›
×
You can save this tab as Personal to edit and correct it or add notes. All changes will be seen only by you. Learn more »
launch autoscroll
font size
0
reset
how to read this tab
guitar tuner
edit
Autoscroll
slow
fast
+/-
esc
set tempo
stop
Author
Difficulty
the other tabs on here are DEFINITELY wrong... so i listened to it and tabbed it 
sorry other guys who made the tab for this song, but its true!

standard tuning

e|-------7-----7-----7-----7----------0---------------0--------|
b|.----9-----0-----9-----0--------0-----0---0-----0-----0---0-.|
g|---9-----8-----6-----4-----2--2---2-----2-----2---2-----2----|
d|.-----------------------------------------------------------.|
a|-------------------------------------------------------------|
E|-------------------------------------------------------------|

repeat throughout song!!


comments or questions? nharr@bellsouth.net

            
            
Suggest correction
Creating personal tab
Creating personal tab
You can edit any tab online and save it as your Personal.

You can edit, replace or remove any tab part or add personal notes – all changes will be seen only by you.

Personal tabs can be accessed anytime from any device, even offline.
Learn more »
Give kudos to tab author, rate the tab!
1 2 3 4 5
comments
print report bad tab
1 comment total.
0 reply
Ojizzay 41 Sep 19, 2006 05:50 AM

it was a little sketchy but try this i figured it out a while back i have a power tab i made its
e-------7---7---7---------------0---------0-------------|
B-----9---7---5---4---------0-----0---0-----------------|
G---9---8---6---4---4--2--2---2-----2---2---------------|
D-------------------------------------------------------|
A-------------------------------------------------------|
E-------------------------------------------------------|

guest
You may want to rate the tab now too:
select rating
Wanna post a correction for this tab? Suggest correction