Oops, an error
Loading. Please wait.

Limerent Tab

46 views 12 this week
no commentswrite comment
1 2 3 4 5
3 more votes to show rating
add to favorites
launch autoscroll
font size
0
reset
how to read this tab
guitar tuner
Autoscroll
slow
fast
+/-
esc
set tempo
stop
Help us to improve Ultimate-Guitar.com Take our survey!
×
Author
Difficulty
advanced
[Intro]
                                                                      (3 strokes the first time,
                                                                       2 strokes the second time)
e|----------------------------------|---------------------------------|-10-10-(10)-------------------------|
B|---11-11-11-----11----------------|--15-15-15-----13----------------|-11-11-(11)-----11------------------|
G|---12-12-12-----13b14--14--10--12-|--14-14-14-----15b16--14--15--10-|--0--0-(-0)-----13b14--14--10--12---|
D|---10-10-10-----------------------|--12-12-12-----------------------|--0--0-(-0)-------------------------|
A|---10-10-10-----------------------|--13-13-13-----------------------|-12-12-(12)-------------------------|
E|----------------------------------|---------------------------------|------------------------------------|

     End 1                                              End 2
e|--------------------------------------------------|------------------------------------------------|
B|-10-10-10-10----------10h11h14p10-----------------|-------------------------------------14~~~~~~---|
G|--9--9--9--9--9h10h12--------------12--10--9h10p9-|-14-14-14-12-12-12-14-14-14-12-12-12-12---------|
D|-11-11-11-11--------------------------------------|-11-11-11-11-11-11-11-11-11-11-11-11-11---------|
A|-12-12-12-12--------------------------------------|-13-13-13-13-13-13-13-13-13-13-13-13-13---------|
E|--------------------------------------------------|------------------------------------------------|

*short drum fill*

[Main Riff A(i guess...)]
                                                                                tremolo the shit out of it
e|--------------------------------------------|-----------------------------------15-15-15-15-15---|
B|--------------------------------------------|------------------------------------0--0--0--0--0---|
G|--------------------------------------------|-----------------------------------15-15-15-15-15---| 
D|---10-10-10-10-10-10-10-10-10-10--15--11----|-10-10-10-10-10-10-10-10--15--11----0--0--0--0--0---|
A|---12-12-12-12-12-12-12-12-12-12--12--11----|-12-12-12-12-12-12-12-12--12--11---14-14-14-14-14---|
E|---10-10-13-10-10-13-10-10-13-10--12---9----|-10-10-13-10-10-13-10-10--12---9--------------------|(x4)


[Break Riff]
                                                         (gradually release palm mute)
pm     .  .     .  .     .  .     .  .     .          .  .  .  .  .  .  .  .  .  .  .  .
e|-------------------------------------------------|----------------------------------------------------|
B|-14-------14-------14-------14-------14----14-14-|----------------------------------------------------|
G|-15-------15-------15-------15-------15----15-15-|--------------------------------------10----10------|
D|-14-14-14-14-14-14-14-14-14-14-14-14-14-14-14-14-|--------------------------10-10-12-12----12---------|
A|--0--0--0--0--0--0--0--0--0--0--0--0--0--0--0--0-|--------------10-10-12-12---------------------------|
E|-------------------------------------------------|--10-10-13-13---------------------------------------|

                                                         (gradually release palm mute)
pm     .  .     .  .     .  .     .  .     .          .  .  .  .  .  .  .  .  .  .  .  .
e|-------------------------------------------------|----------------------------------------------------|
B|-14-------14-------14-------14-------14----14-14-|----------------------------------------------------|
G|-15-------15-------15-------15-------15----15-15-|--------------------------------------10-11-12/-----|
D|-14-14-14-14-14-14-14-14-14-14-14-14-14-14-14-14-|--------------------------10-10-12-12---------------|
A|--0--0--0--0--0--0--0--0--0--0--0--0--0--0--0--0-|--------------10-10-12-12---------------------------|
E|-------------------------------------------------|--10-10-13-13---------------------------------------|

                                                         (gradually release palm mute)
pm     .  .     .  .     .  .     .  .     .          .  .  .  .  .  .  .  .  .  .  .  .
e|-------------------------------------------------|----------------------------------------------------|
B|-14-------14-------14-------14-------14----14-14-|----------------------------------------------------|
G|-15-------15-------15-------15-------15----15-15-|--------------------------------------10----10------|
D|-14-14-14-14-14-14-14-14-14-14-14-14-14-14-14-14-|--------------------------10-10-12-12----12---------|
A|--0--0--0--0--0--0--0--0--0--0--0--0--0--0--0--0-|--------------10-10-12-12---------------------------|
E|-------------------------------------------------|--10-10-13-13---------------------------------------|

                                                         (gradually release palm mute)
pm     .  .     .  .     .  .     .  .     .          .  .  .  .  .  .  .  .  .  .  .  .
e|-------------------------------------------------|----------------------------------------------------|
B|-14-------14-------14-------14-------14----14-14-|--------------------------------------------12------|
G|-15-------15-------15-------15-------15----15-15-|--------------------------------------11-11---------|
D|-14-14-14-14-14-14-14-14-14-14-14-14-14-14-14-14-|--------------------------11-11-13-13---------------|
A|--0--0--0--0--0--0--0--0--0--0--0--0--0--0--0--0-|--------------10-10-12-12---------------------------|
E|-------------------------------------------------|--10-10-13-13---------------------------------------|

e|-------------------------------------------------|
B|-------------------------------------------------|
G|-------------------------------------------------|
D|---------------------------11-11-13-13-----------|
A|---------------11-11-13-13-------------0-0-------|
E|---11-11-14-14-----------------------------9-9---|


[Main Riff A]
                                                                                tremolo the shit out of it
e|--------------------------------------------|-----------------------------------15-15-15-15-15---|
B|--------------------------------------------|------------------------------------0--0--0--0--0---|
G|--------------------------------------------|-----------------------------------15-15-15-15-15---| 
D|---10-10-10-10-10-10-10-10-10-10--15--11----|-10-10-10-10-10-10-10-10--15--11----0--0--0--0--0---|
A|---12-12-12-12-12-12-12-12-12-12--12--11----|-12-12-12-12-12-12-12-12--12--11---14-14-14-14-14---|
E|---10-10-13-10-10-13-10-10-13-10--12---9----|-10-10-13-10-10-13-10-10--12---9--------------------|
                                                                              
e|--------------------------------------------|----------------------------------------------------|
B|--------------------------------------------|----------------------------------------------------|
G|--------------------------------------------|----------------------------------------------------| 
D|---10-10-10-10-10-10-10-10-10-10--15--11----|----------------------------------------------------|
A|---12-12-12-12-12-12-12-12-12-12--12--11----|----------------------------------------------------|
E|---10-10-13-10-10-13-10-10-13-10--12---9----|---\\\\\\\\\\\\\\\\\\\\\\\\\\\\\\\\\\\\\\\\\\\\\\---|


[Main Riff B (same rythm as Main Riff A)]
                                                            tremolo the shit out of it
e|--------------------------------|---------------------------9-9-9-9-9-|
B|--------------------------------|---------------------------0-0-0-0-0-|
G|--------------------------------|---------------------------9-9-9-9-9-|
D|---4-4-4-4-4-4-4-4-4-4--9--5----|---4-4-4-4-4-4-4-4--9--5---0-0-0-0-0-|
A|---6-6-6-6-6-6-6-6-6-6--6--3----|---6-6-6-6-6-6-6-6--6--3---8-8-8-8-8-|
E|---4-4-7-4-4-7-4-4-7-4--6--3----|---4-4-7-4-4-7-4-4--6--3-------------| (x2)




...

I'm still working on the rest. If you want to help or correct it, just tell me.


************************************

| h    Hammer-on
| p    Pull-off
| b    Bend
| /    Slide up
| ~    Vibrato 

************************************
Suggest correction
Give kudos to tab author, rate the tab!
1 2 3 4 5
comments
print report bad tab
guest
You may want to rate the tab now too:
select rating
Wanna post a correction for this tab? Suggest correction