Oops, an error
Loading. Please wait.

Aka I-D-I-O-T Tab

7 views 1 this week
no commentswrite comment
1 2 3 4 5
3 more votes to show rating
add to favorites
launch autoscroll
font size
0
reset
how to read this tab
guitar tuner
Autoscroll
slow
fast
+/-
esc
set tempo
stop
Help us to improve Ultimate-Guitar.com Take our survey!
×
Author
[Intro]
e|-----------------------------------------------------------------------------|
B|---------5-3/5-3p0-----------------------------------------------------------|
G|-------------------2p0-2p0---------------------------------------------------|
D|-7-7-7-9-------------------2----7-7-7-9--------------------------------------|
A|-5-5-5-7------------------------5-5-5-7--------------------------------------|
E|-----------------------------------------3-3-2-1-0---------------------------|

[Verse]
e|-----------------------------------------------------------------------------|
B|-----------------------------------------------------------------------------|
G|-----------------7-7-7-7-7-7-7-----------------------------------------------|
D|-9-9-9-9-9-9-9-7-5-5-5-5-5-5-7-7-5-5-5-5-5-5-5-5---------4-4-4-4-------------|
A|-7-7-7-7-7-7-7-5---------------5-3-3-3-3-3-3-3-3-5-5-5-5-2-2-2-2-------------|
E|-------------------------------------------------3-3-3-3---------------------|

[Chorus]
e|-----------------------------------------------------------------------------|
B|-----------------------------------------------------------------------------|
G|-----------------------------------------------------------------------------|
D|-9-9-9-9-9-9-9-9-7-7-7-7-7-7-7-7-----------------5-5-5-5-4-4-4-4-------------|
A|-7-7-7-7-7-7-7-7-5-5-5-5-5-5-5-5-5-5-5-5-5-5-5-5-3-3-3-3-2-2-2-2-------------|
E|---------------------------------3-3-3-3-3-3-3-3-----------------------------|


************************************

| p  Pull-off
| /  Slide up

************************************
Suggest correction
Give kudos to tab author, rate the tab!
1 2 3 4 5
comments
print report bad tab
guest
You may want to rate the tab now too:
select rating
Wanna post a correction for this tab? Suggest correction