Oops, an error
Loading. Please wait.

Automatic Schmuck tab

34 views 1 this week
no commentswrite comment
1 2 3 4 5
3 more votes to show rating
add to favorites
×
Save as Personal and add changes to this tab that will be seen only by you. Learn more ›
×
You can save this tab as Personal to edit and correct it or add notes. All changes will be seen only by you. Learn more »
launch autoscroll
font size
0
reset
how to read this tab
guitar tuner
edit
Autoscroll
slow
fast
+/-
esc
set tempo
stop
About this tab version
Based on a version from the Hives' debute album. Listen to the song to get the strumming pattern better. Was this info helpful? Yes No
[Verse 1]
(Guitar 1)
e|-------------------------|-------------------------|-------------------------------|
B|-------------------------|-------------------------|-------------------------------|
G|-------------------------|-------------------------|-------------------------------|
D|-x--x-x-x-x-7-x--x-x-x-x-|-7-x--x-x-x-x-7----------|-------------------------------|(x6)
A|-x--x-x-x-x-7-x--x-x-x-x-|-7-x--x-x-x-x-7----------|-------------------------------|
E|-x--x-x-x-x-5-x--x-x-x-x-|-5-x--x-x-x-x-5----------|-------------------------------|

(Guitar 2)
e|-------------------------|-------------------------|-------------------------------|
B|-------------------------|-------------------------|-------------------------------|
G|-------------------------|---------------------5---|-------------------------------|
D|------------7------------|-7------------7--2-3-5-7-|-------------------------------|(x6)
A|------------7------------|-7------------7--2-3-3-7-|-------------------------------|
E|------------5------------|-5------------5--0-1---5-|-------------------------------|

(Both guitars)
e|-------------------------|---------------------------|-------------------------------|
B|-------------------------|---------------------------|-------------------------------|
G|-7-7-7-7-7-7-7-7-7-7-7-7-|-7-7-7-7-10-10-10-10-10-10-|-10-10-10-10-10-10-10-10-10-10-|
D|-7-7-7-7-7-7-7-7-7-7-7-7-|-7-7-7-7-10-10-10-10-10-10-|-10-10-10-10-10-10-10-10-10-10-|
A|-5-5-5-5-5-5-5-5-5-5-5-5-|-5-5-5-5-8--8--8--8--8--8--|-8--8--8--8--8--8--8--8--8--8--|
E|-------------------------|---------------------------|-------------------------------|

(Guitar 1)
e|-------------------------|-------------------------|-------------------------------|
B|-------------------------|-------------------------|-------------------------------|
G|-------------------------|-------------------------|-------------------------------|
D|-x--x-x-x-x-7-x--x-x-x-x-|-7-x--x-x-x-x-7----------|-------------------------------|(x2)
A|-x--x-x-x-x-7-x--x-x-x-x-|-7-x--x-x-x-x-7----------|-------------------------------|
E|-x--x-x-x-x-5-x--x-x-x-x-|-5-x--x-x-x-x-5----------|-------------------------------|

(Guitar 2)
e|-------------------------|-------------------------|-------------------------------|
B|-------------------------|-------------------------|-------------------------------|
G|-------------------------|---------------------5---|-------------------------------|
D|------------7------------|-7------------7--2-3-5-7-|-------------------------------|(x2)
A|------------7------------|-7------------7--2-3-3-7-|-------------------------------|
E|------------5------------|-5------------5--0-1---5-|-------------------------------|

[Chorus 1]
(Both guitars)
e|-------------------------|---------------------------|-------------------------------|
B|-------------------------|---------------------------|-------------------------------|
G|-7-7-7-7-7-7-7-7-7-7-7-7-|-7-7-7-7-10-10-10-10-10-10-|-10-10-10-10-10-10-10-10-10-10-|
D|-7-7-7-7-7-7-7-7-7-7-7-7-|-7-7-7-7-10-10-10-10-10-10-|-10-10-10-10-10-10-10-10-10-10-|
A|-5-5-5-5-5-5-5-5-5-5-5-5-|-5-5-5-5-8--8--8--8--8--8--|-8--8--8--8--8--8--8--8--8--8--|
E|-------------------------|---------------------------|-------------------------------|

(Guitar 1)
e|-------------------------|---------------------------|-------------------------------|
B|-------------------------|---------------------------|-------------------------------|
G|-------------------------|---------------------------|-------------------------------|
D|-7-7-7-7-7-7-7-7-7-7-7-7-|-7-7-7-7-7-7-7-7-7-7-7-7-7-|-7-7-7-7-7-7-7-----------------|
A|-7-7-7-7-7-7-7-7-7-7-7-7-|-7-7-7-7-7-7-7-7-7-7-7-7-7-|-7-7-7-7-7-7-7-----------------|
E|-5-5-5-5-5-5-5-5-5-5-5-5-|-5-5-5-5-5-5-5-5-5-5-5-5-5-|-5-5-5-5-5-5-5-----------------|

(Guitar 2)
e|-------------------------|----------------8------7---|---6~--------------------------|
B|--------8------7------6~-|--------5------------------|-------------------------------|
G|-7-----------------------|---------------------------|-------------------------------|
D|-------------------------|---------------------------|-------------------------------|
A|-------------------------|---------------------------|-------------------------------|
E|-------------------------|---------------------------|-------------------------------|

(Both guitars)
e|-------------------------|---------------------------|-------------------------------|
B|-------------------------|---------------------------|-------------------------------|
G|-7-7-7-7-7-7-7-7-7-7-7-7-|-7-7-7-7-5-5-5-5-5-5-5-5-5-|-5-5-5-5-5-5-5-----------------|
D|-7-7-7-7-7-7-7-7-7-7-7-7-|-7-7-7-7-5-5-5-5-5-5-5-5-5-|-5-5-5-5-5-5-5-----------------|
A|-5-5-5-5-5-5-5-5-5-5-5-5-|-5-5-5-5-3-3-3-3-3-3-3-3-3-|-3-3-3-3-3-3-3-----------------|
E|-------------------------|---------------------------|-------------------------------|

(Both guitars)
e|-------------------------|---------------------------|-------------------------------|
B|-------------------------|---------------------------|-------------------------------|
G|-------------------------|---------------------------|-------------------------------|
D|-7--x-x-x-x-7-7-7--------|---------------------------|-------------------------------|
A|-7--x-x-x-x-7-7-7--------|---------------------------|-------------------------------|
E|-5--x-x-x-x-5-5-5--------|---------------------------|-------------------------------|

(Guitar 1 or 2)
e|---------------------------------------------------------------------------------|
B|---------------------------------------------------------------------------------|
G|---------------------------------------------------------------------------------|
D|-x-x-x-x-x-x---------------------------------------------------------------------|
A|-x-x-x-x-x-x---------------------------------------------------------------------|
E|-x-x-x-x-x-x---------------------------------------------------------------------|

(Both guitars)
e|---------------------------------------------------------------------------------|
B|---------------------------------------------------------------------------------|
G|-----------------9-9-9-9-9-------------------------------------------------------|
D|-3-3-3-3-5-5-5-5-9-9-9-9-9-------------------------------------------------------|
A|-3-3-3-3-5-5-5-5-7-7-7-7-7-------------------------------------------------------|
E|-1-1-1-1-3-3-3-3-----------------------------------------------------------------|

[Verse 2]
(Guitar 1)
e|-------------------------|-------------------------|-------------------------------|
B|-------------------------|-------------------------|-------------------------------|
G|-------------------------|-------------------------|-------------------------------|
D|-x--x-x-x-x-7-x--x-x-x-x-|-7-x--x-x-x-x-7----------|-------------------------------|(x6)
A|-x--x-x-x-x-7-x--x-x-x-x-|-7-x--x-x-x-x-7----------|-------------------------------|
E|-x--x-x-x-x-5-x--x-x-x-x-|-5-x--x-x-x-x-5----------|-------------------------------|

(Guitar 2)
e|-------------------------|-------------------------|-------------------------------|
B|-------------------------|-------------------------|-------------------------------|
G|-------------------------|---------------------5---|-------------------------------|
D|------------7------------|-7------------7--2-3-5-7-|-------------------------------|(x6)
A|------------7------------|-7------------7--2-3-3-7-|-------------------------------|
E|------------5------------|-5------------5--0-1---5-|-------------------------------|

[Chorus 2]
(Both guitars)
e|-------------------------|---------------------------|-------------------------------|
B|-------------------------|---------------------------|-------------------------------|
G|-7-7-7-7-7-7-7-7-7-7-7-7-|-7-7-7-7-10-10-10-10-10-10-|-10-10-10-10-10-10-10-10-10-10-|
D|-7-7-7-7-7-7-7-7-7-7-7-7-|-7-7-7-7-10-10-10-10-10-10-|-10-10-10-10-10-10-10-10-10-10-|
A|-5-5-5-5-5-5-5-5-5-5-5-5-|-5-5-5-5-8--8--8--8--8--8--|-8--8--8--8--8--8--8--8--8--8--|
E|-------------------------|---------------------------|-------------------------------|

(Gutiar 1)
e|-------------------------|---------------------------|-------------------------------|
B|-------------------------|---------------------------|-------------------------------|
G|-------------------------|---------------------------|-------------------------------|
D|-7-7-7-7-7-7-7-7-7-7-7-7-|-7-7-7-7-7-7-7-7-7-7-7-7-7-|-7-7-7-7-7-7-7-----------------|
A|-7-7-7-7-7-7-7-7-7-7-7-7-|-7-7-7-7-7-7-7-7-7-7-7-7-7-|-7-7-7-7-7-7-7-----------------|
E|-5-5-5-5-5-5-5-5-5-5-5-5-|-5-5-5-5-5-5-5-5-5-5-5-5-5-|-5-5-5-5-5-5-5-----------------|

(Guitar 2)
e|-------------------------|----------------8------7---|---6~--------------------------|
B|--------8------7------6~-|--------5------------------|-------------------------------|
G|-7-----------------------|---------------------------|-------------------------------|
D|-------------------------|---------------------------|-------------------------------|
A|-------------------------|---------------------------|-------------------------------|
E|-------------------------|---------------------------|-------------------------------|

(Both guitars)
e|-------------------------|---------------------------|-------------------------------|
B|-------------------------|---------------------------|-------------------------------|
G|-7-7-7-7-7-7-7-7-7-7-7-7-|-7-7-7-7-5-5-5-5-5-5-5-5-5-|-5-5-5-5-5-5-5-----------------|
D|-7-7-7-7-7-7-7-7-7-7-7-7-|-7-7-7-7-5-5-5-5-5-5-5-5-5-|-5-5-5-5-5-5-5-----------------|
A|-5-5-5-5-5-5-5-5-5-5-5-5-|-5-5-5-5-3-3-3-3-3-3-3-3-3-|-3-3-3-3-3-3-3-----------------|
E|-------------------------|---------------------------|-------------------------------|

(Both guitars)
e|-------------------------|---------------------------|-------------------------------|
B|-------------------------|---------------------------|-------------------------------|
G|-------------------------|---------------------------|-------------------------------|
D|-7--x-x-x-x-7-7-7--------|---------------------------|-------------------------------|
A|-7--x-x-x-x-7-7-7--------|---------------------------|-------------------------------|
E|-5--x-x-x-x-5-5-5--------|---------------------------|-------------------------------|

(Guitar 1 or 2)
e|---------------------------------------------------------------------------------|
B|---------------------------------------------------------------------------------|
G|---------------------------------------------------------------------------------|
D|-x-x-x-x-x-x---------------------------------------------------------------------|
A|-x-x-x-x-x-x---------------------------------------------------------------------|
E|-x-x-x-x-x-x---------------------------------------------------------------------|

(Both guitars)
e|---------------------------------------------------------------------------------|
B|---------------------------------------------------------------------------------|
G|-----------------9-9-9-9-9-------------------------------------------------------|
D|-3-3-3-3-5-5-5-5-9-9-9-9-9-------------------7~----------------------------------|
A|-3-3-3-3-5-5-5-5-7-7-7-7-7-------------------7~----------------------------------|
E|-1-1-1-1-3-3-3-3-----------------------------5~----------------------------------|

[Bridge]
there's a lot of noise from bass guitar mediator sliding in the first half of this part
(Guitar 1)
e|-------------------------|---------------------------------------------------------|
B|-------------------------|---------------------------------------------------------|
G|-------------------------|---------------------------------------------------------|
D|-7--7-7-7-7-7-7-7--7-7-7-|-7-7-7-7--7-7-7-7-7-7-7-7-7-7-7-7-7-7--------------------|(x8)
A|-------------------------|---------------------------------------------------------|
E|-5--5-5-5-5-5-5-5--5-5-5-|-5-5-5-5--5-5-5-5-5-5-5-5-5-5-5-5-5-5--------------------|

(Gutar 2)
e|---------------------------------------------------------------------------------|
B|------------------------------------10~------------------------------------------|
G|-9~----------------10~-----------------------------------------------------------|
D|---------------------------------------------------------------------------------|(x8)
A|---------------------------------------------------------------------------------|
E|---------------------------------------------------------------------------------|

[Chorus 3]
(Both guitars)
e|-------------------------|---------------------------|-------------------------------|
B|-------------------------|---------------------------|-------------------------------|
G|-7-7-7-7-7-7-7-7-7-7-7-7-|-7-7-7-7-10-10-10-10-10-10-|-10-10-10-10-10-10-10-10-10-10-|
D|-7-7-7-7-7-7-7-7-7-7-7-7-|-7-7-7-7-10-10-10-10-10-10-|-10-10-10-10-10-10-10-10-10-10-|
A|-5-5-5-5-5-5-5-5-5-5-5-5-|-5-5-5-5-8--8--8--8--8--8--|-8--8--8--8--8--8--8--8--8--8--|
E|-------------------------|---------------------------|-------------------------------|

(Gutiar 1)
e|-------------------------|---------------------------|-------------------------------|
B|-------------------------|---------------------------|-------------------------------|
G|-------------------------|---------------------------|-------------------------------|
D|-7-7-7-7-7-7-7-7-7-7-7-7-|-7-7-7-7-7-7-7-7-7-7-7-7-7-|-7-7-7-7-7-7-7-----------------|
A|-7-7-7-7-7-7-7-7-7-7-7-7-|-7-7-7-7-7-7-7-7-7-7-7-7-7-|-7-7-7-7-7-7-7-----------------|
E|-5-5-5-5-5-5-5-5-5-5-5-5-|-5-5-5-5-5-5-5-5-5-5-5-5-5-|-5-5-5-5-5-5-5-----------------|

(Guitar 2)
e|-------------------------|----------------8------7---|---6~--------------------------|
B|--------8------7------6~-|--------5------------------|-------------------------------|
G|-7-----------------------|---------------------------|-------------------------------|
D|-------------------------|---------------------------|-------------------------------|
A|-------------------------|---------------------------|-------------------------------|
E|-------------------------|---------------------------|-------------------------------|

(Both guitars)
e|-------------------------|---------------------------|-------------------------------|
B|-------------------------|---------------------------|-------------------------------|
G|-7-7-7-7-7-7-7-7-7-7-7-7-|-7-7-7-7-5-5-5-5-5-5-5-5-5-|-5-5-5-5-5-5-5-----------------|
D|-7-7-7-7-7-7-7-7-7-7-7-7-|-7-7-7-7-5-5-5-5-5-5-5-5-5-|-5-5-5-5-5-5-5-----------------|
A|-5-5-5-5-5-5-5-5-5-5-5-5-|-5-5-5-5-3-3-3-3-3-3-3-3-3-|-3-3-3-3-3-3-3-----------------|
E|-------------------------|---------------------------|-------------------------------|

(Both guitars)
e|-------------------------|---------------------------|-------------------------------|
B|-------------------------|---------------------------|-------------------------------|
G|-------------------------|---------------------------|-------------------------------|
D|-7--x-x-x-x-7-7-7--------|---------------------------|-------------------------------|
A|-7--x-x-x-x-7-7-7--------|---------------------------|-------------------------------|
E|-5--x-x-x-x-5-5-5--------|---------------------------|-------------------------------|

(Guitar 1 or 2)
e|---------------------------------------------------------------------------------|
B|---------------------------------------------------------------------------------|
G|---------------------------------------------------------------------------------|
D|-x-x-x-x-x-x---------------------------------------------------------------------|
A|-x-x-x-x-x-x---------------------------------------------------------------------|
E|-x-x-x-x-x-x---------------------------------------------------------------------|

(Both guitars)
e|---------------------------------------------------------------------------------|
B|---------------------------------------------------------------------------------|
G|-----------------9-9-9-9-9-------------------------------------------------------|
D|-3-3-3-3-5-5-5-5-9-9-9-9-9-------------------------------------------------------|
A|-3-3-3-3-5-5-5-5-7-7-7-7-7-------------------------------------------------------|
E|-1-1-1-1-3-3-3-3-----------------------------------------------------------------|

************************************

| x  Dead note
| ~  Vibrato

************************************

            
            
Suggest correction
Creating personal tab
Creating personal tab
You can edit any tab online and save it as your Personal.

You can edit, replace or remove any tab part or add personal notes – all changes will be seen only by you.

Personal tabs can be accessed anytime from any device, even offline.
Learn more »
Give kudos to tab author, rate the tab!
1 2 3 4 5
comments
print report bad tab
guest
You may want to rate the tab now too:
select rating
Wanna post a correction for this tab? Suggest correction