Oops, an error
Loading. Please wait.

Declare Guerre Nucleaire Tab

version 1
version 1

Whole song

Interactive

4,032 views 3 this week
2 commentsread comments
1 2 3 4 5
x 5
add to favorites
launch autoscroll
font size
0
reset
how to read this tab
guitar tuner
×
Best way to learn
"Declare Guerre Nucleaire"
Autoscroll
slow
fast
+/-
esc
set tempo
stop
Author
----------------------------------------------------------------------------
                         Declare Guerre Nucleaire - The Hives
----------------------------------------------------------------------------
Tabbed by:Matt Magnusson
Email:~~~~~~

Tuning: Standard EADGBe

Opening
e|-7--2--3--0--2-----1-----------------------------------------|
B|-8--3--4--1--3-----2-----------------------------------------|
G|-9--4--5--2--4-----3-----------------------------------------|
D|-9--4--5--2--4-----3-----------------------------------------|
A|-7--2--3--0--2-----1-----------------------------------------|
E|-------------------------------------------------------------|

Verse and Rest of Song
e|-------------------------------------------------------------|
B|-------------------------------------------------------------|
G|-1-1-1-0-4-4-4-4-4/6-6/8-8-8-8-------------------------------|
D|-2-2-2-0-5-5-5-5-5/7-7/9-9-9-9-------------------------------|
A|-2-2-2-0-5-5-5-5-5/7-7/9-9-9-9-------------------------------|
E|-0-0-0-0-3-0-3-0-3/5-5/7-7-7-7-------------------------------|

And that's all folks, the held out note is just an E chord on all 6 strings

| /  slide up
| \  slide down
| h  hammer-on
| p  pull-off
| ~  vibrato
| +  harmonic
| x  Mute note
===============================================================================
Suggest correction
comments
print report bad tab
2 comments total.
0 reply
Heinz90 73 Apr 12, 2008 06:21 AM

its not exectly like this... ithink they play it like this...

Verse and Rest of Song
e|-------------------------------------------------------------|
B|-----9-------------------------------------------------------|
G|-1-/-9-4-4-4-4-4/6-6/8-8-8-8-------------------------------|
D|-2-/-9-5-5-5-5-5/7-7/9-9-9-9-------------------------------|
A|-2-/-7-5-5-5-5-5/7-7/9-9-9-9-------------------------------|
E|-0-/---3-0-3-0-3/5-5/7-7-7-7-------------------------------|

0 reply
farbrorpunk 84 Jun 12, 2008 07:46 AM

I think it's perfect

guest
You may want to rate the tab now too:
select rating
Wanna post a correction for this tab? Suggest correction