Oops, an error
Loading. Please wait.

Tick Tick Boom tab

version 1
version 1

Whole song

Interactive

139,535 views 99 this week
12 commentsread comments
1 2 3 4 5
x 58
add to favorites
×
Save as Personal and add changes to this tab that will be seen only by you. Learn more ›
×
You can save this tab as Personal to edit and correct it or add notes. All changes will be seen only by you. Learn more »
launch autoscroll
font size
0
reset
how to read this tab
guitar tuner
backing track
0:00
0:00
edit
Autoscroll
slow
fast
+/-
esc
set tempo
stop
Author
The Hives - Tick Tick Boom.

From "The Black and White Album".

Tabbed by Franzypants.

This didn't take long, and it seems right to me.
Enjoy. 


[Intro/Verse]

"Yeeeeeeeeeeeeh, I was right all along..."

e|-------------|    |------------------|
B|-------------|    |------------------|
G|------9-7-7-7|X 1 |---------9-7-7-7--| Keep playing this over, and over.
D|--9-9-9-7-7-7|    |-0-9-9-9-9-7-7-7--| 
A|--9-9-7-5-5-5|    |-0-9-9-9-7-5-5-5--|
E|--7-7--------|    |-0-7-7-7----------|


[Chorus]
 
cause i have done....                           ...or is it? tick(x8) BOOM!
  e|------------------------------------------------------------------0---|               
  B|------------------------------------------------------------------0---| 
  G|-----------9-9-9---12-12-12---7-7-7-------------------------------0---|     
  D|-----------9-9-9---12-12-12---7-7-7---7-7-7---5-5-5---------------0---|
  A|-----------7-7-7---10-10-10---5-5-5---7-7-7---5-5-5---------------0---|
  E|--------------------------------------5-5-5---3-3-3---------------0---|
   (not 100% sure about what to play on "Boom!")

 
[Breakdown, with palm mute] 

(After second "boom!") :
     
         e|-----------------------------|
         B|-----------------------------|
         G|-----------------------------|
         D|----9-9-9-9-9-9-9-9-9--------| Keep going on that.
         A|----9-9-9-9-9-9-9-9-9--------|
         E|----7-7-7-7-7-7-7-7-7--------|

That's it. Hope you like it.
Suggest correction
Creating personal tab
Creating personal tab
You can edit any tab online and save it as your Personal.

You can edit, replace or remove any tab part or add personal notes – all changes will be seen only by you.

Personal tabs can be accessed anytime from any device, even offline.
Learn more »
comments
print report bad tab
12 comments total. Showing first comments.
0 reply
Presidenten 10 Oct 21, 2007 03:16 AM

thx a lot, seems correct to me

0 reply
Perssonpojken 60 Nov 09, 2007 09:11 AM

Thx a lot! The Hives rules!

0 reply
g_tab_man 82 Mar 22, 2008 10:02 AM

you did a really good job with this

guest
You may want to rate the tab now too:
select rating
Wanna post a correction for this tab? Suggest correction