Oops, an error
Loading. Please wait.

Uptight intro tab

version 2
version 2

Intro

Whole song

855 views 1 this week
2 commentsread comments
1 2 3 4 5
x 3
add to favorites
×
Save as Personal and add changes to this tab that will be seen only by you. Learn more ›
×
You can save this tab as Personal to edit and correct it or add notes. All changes will be seen only by you. Learn more »
launch autoscroll
font size
0
reset
how to read this tab
guitar tuner
edit
Autoscroll
slow
fast
+/-
esc
set tempo
stop
Difficulty
yo this is the real tab. it was easy, i just listened to the song and i don't give a 
if u think its wrong coz it isn't.
e|---------------------------------------------------------------------|
B|---------------------------------------------------------------------|
G|---------------------------------------------------------------------|
D|-------------------0--0--3-3--5----5--5--3---------------------------|
A|------------------------------------------5-3-3-5-3------------------|
E|---3--3--6-6--8------------------------------6-----6-3-1-3-----------|

            
            
Suggest correction
Creating personal tab
Creating personal tab
You can edit any tab online and save it as your Personal.

You can edit, replace or remove any tab part or add personal notes – all changes will be seen only by you.

Personal tabs can be accessed anytime from any device, even offline.
Learn more »
Give kudos to tab author, rate the tab!
1 2 3 4 5
comments
print report bad tab
2 comments total.
0 reply
big duck 10 Nov 07, 2007 01:55 PM

there's a few more notes on the end, like you said it's easy to figure out.

0 reply
Sean1708 72 Oct 23, 2010 05:38 AM

perfect just add this on the start and end

e|------------------|
B|------------------|
G|------------------|
D|------------------|
A|------------------|
E|---3--3--6-6--1-3-|

guest
Wanna post a correction for this tab? Suggest correction