Oops, an error
Loading. Please wait.

Teenage Dreams tab

211 views 3 this week
no commentswrite comment
1 2 3 4 5
3 more votes to show rating
add to favorites
×
Save as Personal and add changes to this tab that will be seen only by you. Learn more ›
×
You can save this tab as Personal to edit and correct it or add notes. All changes will be seen only by you. Learn more »
launch autoscroll
font size
0
reset
how to read this tab
guitar tuner
edit
Autoscroll
slow
fast
+/-
esc
set tempo
stop
Author
Tabbed by: GORAN
Bpm: 170
Rhythm & Lead Guitar

Listen to the song on YouTube for rhythm and note value!

http://www.youtube.com/watch?v=qkLN-8Rs3gs


[Intro] [Rhythm Guitar] 

e|---------------------------------------------------------------------------|
B|---------------------------------------------------------------------------|
G|----------------4-4-4--4-4-4---6-6-6--6-6-6---2-2-2--2-2-2-----------------|
D|--2-2---2-2-2---4-4-4--4-4-4---6-6-6--6-6-6---2-2-2--2-2-2-----------------|
A|--2-2---2-2-2---2-2-2--2-2-2---4-4-4--4-4-4---0-0-0--0-0-0-----------------|
E|--0-0---0-0-0--------------------------------------------------------------|

e|---------------------------------------------------------------------------|
B|---------------------------------------------------------------------------|
G|----------------4-4-4--4-4-4-----------------------------------------------|
D|--2-2---2-2-2---4-4-4--4-4-4---6-6-6--6-6-6---7-7-7--7-7-7-----------------|
A|--2-2---2-2-2---2-2-2--2-2-2---6-6-6--6-6-6---7-7-7--7-7-7-----------------|
E|--0-0---0-0-0------------------4-4-4--4-4-4---5-5-5--5-5-5-----------------|

e|---------------------------------------------------------------------------|
B|---------------------------------------------------------------------------|
G|----------------4-4-4--4-4-4---6-6-6--6-6-6---2-2-2--2-2-2-----------------|
D|--2-2---2-2-2---4-4-4--4-4-4---6-6-6--6-6-6---2-2-2--2-2-2-----------------|
A|--2-2---2-2-2---2-2-2--2-2-2---4-4-4--4-4-4---0-0-0--0-0-0-----------------|
E|--0-0---0-0-0--------------------------------------------------------------|

e|---------------------------------------------------------------------------|
B|---------------------------------------------------------------------------|
G|----------------4-4-4--4-4-4---6-6-6--6-6-6---7-7-7--7-7-7-----------------|
D|--2-2---2-2-2---4-4-4--4-4-4---6-6-6--6-6-6---7-7-7--7-7-7-----------------|
A|--2-2---2-2-2---2-2-2--2-2-2---4-4-4--4-4-4---5-5-5--5-5-5-----------------|
E|--0-0---0-0-0--------------------------------------------------------------|


[Intro] [Lead Guitar]

e|--2-0----2-0----4-0----4-0----5-0----5-0----4-0----4-0---------------------|
B|-----0------0------0------0------0------0------0------0--------------------|
G|---------------------------------------------------------------------------|
D|---------------------------------------------------------------------------|
A|---------------------------------------------------------------------------|
E|---------------------------------------------------------------------------|

e|--2-0----2-0----4-0----4-0----5-0----5-0----4-0----4-0---------------------|
B|-----0------0------0------0------0------0------0------0--------------------|
G|---------------------------------------------------------------------------|
D|---------------------------------------------------------------------------|
A|---------------------------------------------------------------------------|
E|---------------------------------------------------------------------------|

e|--7-0----7-0----5-0----5-0----4-0----4-0----5-0----5-0---------------------|
B|-----0------0------0------0------0------0------0------0--------------------|
G|---------------------------------------------------------------------------|
D|---------------------------------------------------------------------------|
A|---------------------------------------------------------------------------|
E|---------------------------------------------------------------------------|

e|--2-0----2-0----4-0----4-0----5-0----5-0----4-0----4-0----0(ring out)------|
B|-----0------0------0------0------0------0------0------0--------------------|
G|---------------------------------------------------------------------------|
D|---------------------------------------------------------------------------|
A|---------------------------------------------------------------------------|
E|---------------------------------------------------------------------------|


[Verse 1&2] [Rhythm Guitar] 2x, Palm muted

e|---------------------------------------------------------------------------|
B|---------------------------------------------------------------------------|
G|---------------------------------------------------------------------------|
D|--2-2-2-2-2-2-2-2-4-4-4-4-4-4-4-4-6-6-6-6-6-6-6-6-2-2-2-2-2-2-2-2----------|
A|--2-2-2-2-2-2-2-2-2-2-2-2-2-2-2-2-4-4-4-4-4-4-4-4-0-0-0-0-0-0-0-0----------|
E|---------------------------------------------------------------------------|

e|---------------------------------------------------------------------------|
B|---------------------------------------------------------------------------|
G|---------------------------------------------------------------------------|
D|--2-2-2-2-2-2-2-2-4-4-4-4-4-4-4-4-6-6-6-6-6-6-6-6-7-7-7-7-7-7-7-7----------|
A|--2-2-2-2-2-2-2-2-2-2-2-2-2-2-2-2-4-4-4-4-4-4-4-4-5-5-5-5-5-5-5-5----------|
E|---------------------------------------------------------------------------|


[Verse 1&2] [Lead Guitar] 2x

e|--0--0--0--0--2--2--2--2--4--4--4--4--0--0--0--0---------------------------|
B|---0--0--0--0--0--0--0--0--0--0--0--0--0--0--0--0--------------------------|
G|---------------------------------------------------------------------------|
D|---------------------------------------------------------------------------|
A|---------------------------------------------------------------------------|
E|---------------------------------------------------------------------------|

e|--0--0--0--0--2--2--2--2--4--4--4--4--5--5--5--5---------------------------|
B|---0--0--0--0--0--0--0--0--0--0--0--0--0--0--0--0--------------------------|
G|---------------------------------------------------------------------------|
D|---------------------------------------------------------------------------|
A|---------------------------------------------------------------------------|
E|---------------------------------------------------------------------------|


[Pre-Chorus] [Rhythm Guitar]

e|---------------------------------------------------------------------------|
B|---------------------------------------------------------------------------|
G|----------------4-4-4--4-4-4---6-6-6--6-6-6---2-2-2--2-2-2-----------------|
D|--2-2---2-2-2---4-4-4--4-4-4---6-6-6--6-6-6---2-2-2--2-2-2-----------------|
A|--2-2---2-2-2---2-2-2--2-2-2---4-4-4--4-4-4---0-0-0--0-0-0-----------------|
E|--0-0---0-0-0--------------------------------------------------------------|

e|---------------------------------------------------------------------------|
B|---------------------------------------------------------------------------|
G|----------------4-4-4--4-4-4-----------------------------------------------|
D|--2-2---2-2-2---4-4-4--4-4-4---6-6-6--6-6-6---7-7-7--7-7-7-----------------|
A|--2-2---2-2-2---2-2-2--2-2-2---6-6-6--6-6-6---7-7-7--7-7-7-----------------|
E|--0-0---0-0-0------------------4-4-4--4-4-4---5-5-5--5-5-5-----------------|

e|---------------------------------------------------------------------------|
B|---------------------------------------------------------------------------|
G|----------------4-4-4--4-4-4---6-6-6--6-6-6---2-2-2--2-2-2-----------------|
D|--2-2---2-2-2---4-4-4--4-4-4---6-6-6--6-6-6---2-2-2--2-2-2-----------------|
A|--2-2---2-2-2---2-2-2--2-2-2---4-4-4--4-4-4---0-0-0--0-0-0-----------------|
E|--0-0---0-0-0--------------------------------------------------------------|

e|---------------------------------------------------------------------------|
B|---------------------------------------------------------------------------|
G|----------------4-4-4--4-4-4---6-6-6--6-6-6---7-7-7--7-7-7-----------------|
D|--2-2---2-2-2---4-4-4--4-4-4---6-6-6--6-6-6---7-7-7--7-7-7-----------------|
A|--2-2---2-2-2---2-2-2--2-2-2---4-4-4--4-4-4---5-5-5--5-5-5-----------------|
E|--0-0---0-0-0--------------------------------------------------------------|


[Pre-Chours] [Lead Guitar]

e|---------------------------------------------------------------------------|
B|---------------------------------------------------------------------------|
G|--9-9--9-9-9--8-8--9--9-9-9--8-8--9--9-9-9---------------------------------|
D|--x-x--x-x-x--x-x--x--x-x-x--x-x--x--x-x-x--7-7-7--7-7-7-------------------|
A|--7-7--7-7-7--7-7--7--7-7-7--7-7--7--7-7-7--x-x-x--x-x-x-------------------|
E|--x-x--x-x-x--x-x--x--x-x-x--x-x--x--x-x-x--5-5-5--5-5-5-------------------|

e|---------------------------------------------------------------------------|
B|---------------------------------------------------------------------------|
G|--9-9--9-9-9--8-8--9--9-9-9--8-8--9--9-9-9---------------------------------|
D|--x-x--x-x-x--x-x--x--x-x-x--x-x--x--x-x-x--7-7-7--7-7-7-------------------|
A|--7-7--7-7-7--7-7--7--7-7-7--7-7--7--7-7-7--x-x-x--x-x-x-------------------|
E|--x-x--x-x-x--x-x--x--x-x-x--x-x--x--x-x-x--5-5-5--5-5-5-------------------|

e|---------------------------------------------------------------------------|
B|---------------------------------------------------------------------------|
G|--9-9---9-9-9--11-11-11--11-11-11--13-13-13--13-13-13--9-9-9--9-9-9--------|
D|--x-x---x-x-x--x--x--x---x--x--x---x--x--x---x--x--x---x-x-x--x-x-x--------|
A|--7-7---7-7-7--9--9--9---9--9--9---11-11-11--11-11-11--7-7-7--7-7-7--------|
E|--x-x---x-x-x--x--x--x---x--x--x---x--x--x---x--x--x---x-x-x--x-x-x--------|

e|---------------------------------------------------------------------------|
B|---------------------------------------------------------------------------|
G|--9-9---9-9-9--11-11-11--11-11-11--13-13-13--13-13-13--14-14-14--14-14-14--|
D|--x-x---x-x-x--x--x--x---x--x--x---x--x--x---x--x--x---x--x--x---x--x--x---|
A|--7-7---7-7-7--9--9--9---9--9--9---11-11-11--11-11-11--12-12-12--12-12-12--|
E|--x-x---x-x-x--x--x--x---x--x--x---x--x--x---x--x--x---x--x--x---x--x--x---|


[Chorus] [Rhythm Guitar] 4x

e|---------------------------------------------------------------------------|
B|---------------------------------------------------------------------------|
G|--9-9--9-9-9-9--9-9--9-9-9-9----9-9-9-9----9-9-9--9-9--9-9-9---------------|
D|--9-9--9-9-9-9--9-9--9-9-9-9----9-9-9-9----9-9-9--9-9--9-9-9---------------|
A|--7-7--7-7-7-7--7-7--7-7-7-7----x-x-x-x----x-x-x--x-x--x-x-x---------------|
E|--x-x--x-x-x-x--x-x--x-x-x-x----9-9-9-9----7-7-7--7-7--7-7-7---------------|


[Chorus] [Lead Guitar] 4x

e|---------------------------------------------------------------------------|
B|---------------------------------------------------------------------------|
G|---------------------------------------------------------------------------|
D|--2-2-2-2/9-9-9--9-9-9--6-6-6-7-6--4-4-4--4-4-4----------------------------|
A|--2-2-2-2/7-7-7--7-7-7--4-4-4-4-4--2-2-2--2-2-2----------------------------|
E|---------------------------------------------------------------------------|


[Interlude] has exactly the same riffs and chords as the [Intro]


[Bridge,first part] [Rhythm Guitar] 4x

e|---------------------------------------------------------------------------|
B|---------------------------------------------------------------------------|
G|---------------------------------------------------------------------------|
D|--2------------------------------------------------------------------------|
A|--2------------------------------------------------------------------------|
E|--0------------------------------------------------------------------------|


[Bridge,second part] [Rhythm Guitar] 4x 

e|---------------------------------------------------------------------------|
B|---------------------------------------------------------------------------|
G|----------------4-4-4--4-4-4---6-6-6--6-6-6---2-2-2--2-2-2-----------------|
D|--2-2---2-2-2---4-4-4--4-4-4---6-6-6--6-6-6---2-2-2--2-2-2-----------------|
A|--2-2---2-2-2---2-2-2--2-2-2---4-4-4--4-4-4---0-0-0--0-0-0-----------------|
E|--0-0---0-0-0--------------------------------------------------------------|

[Bridge,third part] {Rhythm Guitar] 4x

e|---------------------------------------------------------------------------|
B|---------------------------------------------------------------------------|
G|------------------4-4-4-4-4-4-4-4-6-6-6-6-6-6-6-6-2-2-2-2-2-2-2-2----------|
D|--2-2-2-2-2-2-2-2-4-4-4-4-4-4-4-4-6-6-6-6-6-6-6-6-2-2-2-2-2-2-2-2----------|
A|--2-2-2-2-2-2-2-2-2-2-2-2-2-2-2-2-4-4-4-4-4-4-4-4-0-0-0-0-0-0-0-0----------|
E|--0-0-0-0-0-0-0-0----------------------------------------------------------|


[Bridge,first part] [Lead Guitar] 

e|--0--0--0--2--2--2--4--4--4--5-4-2-0--0--0--0--2--2--2---4--4--4--5-4-2-0--|
B|---0--0--0---0--0--0--0--0--0-----------0--0--0--0--0--0---0--0--0---------|
G|---------------------------------------------------------------------------|
D|---------------------------------------------------------------------------|
A|---------------------------------------------------------------------------|
E|---------------------------------------------------------------------------|

e|--7--7--7--5--5--5--4--4--4--5-4-2-0--0--0--0--2--2--2---4--4--4--5-4-2-0--|
B|---0--0--0---0--0--0--0--0--0-----------0--0--0--0--0--0---0--0--0---------|
G|---------------------------------------------------------------------------|
D|---------------------------------------------------------------------------|
A|---------------------------------------------------------------------------|
E|---------------------------------------------------------------------------|


[Bridge,second part] [Lead Guitar] 4x

e|---------------------------------------------------------------------------|
B|---------------------------------------------------------------------------|
G|--9--9/11-11/13-13/11-11/9-9--9--9-9/11-11/13-13/14-14/9-9--9--------------|
D|--x--x-x--x--x--x--x--x--x-x--x--x-x-x--x--x--x--x--x--x-x--x--------------|
A|--7--7-9--9--11-11-9--9--7-9--7--7-7-9--9--11-11-12-12-7-7--7--------------|
E|--x--x-x--x--x--x--x--x--x-x--x--x-x-x--x--x--x--x--x--x-x--x--------------|


[Bridge,third part] [Lead Guitar]

e|--2-0-0-2-0-0-2-0--4-0-0-4-0-0-4-0--5-0-0-5-0-0-5-0--4-0-5-0-5-4-2-0-------|
B|---------------------------------------------------------------------------|
G|---------------------------------------------------------------------------|
D|---------------------------------------------------------------------------|
A|---------------------------------------------------------------------------|
E|---------------------------------------------------------------------------|

e|--2-0-0-2-0-0-2-0--4-0-0-4-0-0-4-0--5-0-0-5-0-0-5-0--4-0-5-0-5-4-2-0-------|
B|---------------------------------------------------------------------------|
G|---------------------------------------------------------------------------|
D|---------------------------------------------------------------------------|
A|---------------------------------------------------------------------------|
E|---------------------------------------------------------------------------|

e|--7-0-0-7-0-0-7-0--5-0-0-5-0-0-5-0--4-0-0-4-0-0-4-0--4-0-5-0-5-4-2-0-------|
B|---------------------------------------------------------------------------|
G|---------------------------------------------------------------------------|
D|---------------------------------------------------------------------------|
A|---------------------------------------------------------------------------|
E|---------------------------------------------------------------------------|

e|--2-0-0-2-0-0-2-0--4-0-0-4-0-0-4-0--5-0-0-5-0-0-5-0--4-0-5-0-5-4-2-0-------|
B|---------------------------------------------------------------------------|
G|---------------------------------------------------------------------------|
D|---------------------------------------------------------------------------|
A|---------------------------------------------------------------------------|
E|---------------------------------------------------------------------------|


[Outro] has an additional riff played by a second [Lead Guitar] 4x

e|--0--0--0--0--4-4-4-4--4/2-2-2--2-2-0(ring out in the end)-----------------|
B|---0--0--0--0-0-0-0-0--0-0-0-0--0-0-0--------------------------------------|
G|---------------------------------------------------------------------------|
D|---------------------------------------------------------------------------|
A|---------------------------------------------------------------------------|
E|---------------------------------------------------------------------------|




************************************

| x  Dead note
| /  Slide up

************************************
Suggest correction
Creating personal tab
Creating personal tab
You can edit any tab online and save it as your Personal.

You can edit, replace or remove any tab part or add personal notes – all changes will be seen only by you.

Personal tabs can be accessed anytime from any device, even offline.
Learn more »
Give kudos to tab author, rate the tab!
1 2 3 4 5
comments
print report bad tab
guest
You may want to rate the tab now too:
select rating
Wanna post a correction for this tab? Suggest correction