Oops, an error
Loading. Please wait.

Bus Stop Bass Tab

version 1
version 1

Whole song

Interactive

5,011 views 9 this week
no commentswrite comment
1 2 3 4 5
please rate
add to favorites
launch autoscroll
font size
0
reset
guitar tuner
Tab Pro tools
  • play this tab
  • loop segment
  • change instrument
  • show fretboard
  • metronome
×
Best way to learn
"Bus Stop"
Autoscroll
slow
fast
+/-
esc
set tempo
stop
Contributor
Bus Stop
The Hollies
Written by Graham Gouldman; released as a single with "Don't Run And Hide" 
as the B-side

Intro:
G|------- ------- ------- -------|------- ------- ------- -------|
D|-------------------------------|-------------------------------|
A|-------------------------------|-------------------------------|
E|-------------------------------|-------------------------------|
 


G|------- ------- ------- -------|------- ------- ------- -------|
D|-------------------------------|-------------------------------|
A|-------------------------------|--------------------7----------|
E|-------------------------------|-------------------------------|
 

Verse:
G|------- ------- ------- -------|------- ----9-- ------- -------|
D|7-----------9-----------5---6--|7-----------------------5---6--|
A|--------------------7----------|--------------------7----------|
E|-------------------------------|-------------------------------|
  Bus     stop,   wet day,    she's   there,  I       say:


G|------- ------- ------- -------|------- ----9-- ------- -------|
D|7-----------9-----------5---6--|7-----------------------5---6--|
A|----------------7---7----------|--------------------7----------|
E|-------------------------------|-------------------------------|
  Please  share   my  umb  -  rel    -    la.


G|------- ------- ------- -------|------- ----9-- ------- -------|
D|7-----------9-----------5---6--|7-----------------------5---6--|
A|--------------------7----------|--------------------7----------|
E|-------------------------------|-------------------------------|
  Bus     stop,   bus goes,   she     stays,  love    grows


G|------- ------- ------- -------|------- ------- ------- -------|
D|7-----------9-----------5---6--|7-----------7---7-------5------|
A|--------------------7----------|-------------------------------|
E|-------------------------------|-------------------------------|
  un  -   der     my  umb  -  rel    -    la


G|------- ------- ------- -------|------- ------- ------- -------|
D|----------------5--------------|-------------------------------|
A|3-----------3------------------|7-----------7---7--------------|
E|-------------------------------|-------------------------------|
  All     that    summer      we      en  -   joyed   it,


G|------- ------- ------- -------|------- ------- ------- -------|
D|-------------------------------|------------------------5---6--|
A|5-----------5---5--------------|7-----------7---7---7----------|
E|-------------------------------|-------------------------------|
  wind    and     rain    and         shine,                  And


G|------- ------- ------- -------|------- ----9-- ------- -------|
D|7-----------9---------------6--|7-----------------------5---6--|
A|----------------7---7----------|--------------------7----------|
E|-------------------------------|-------------------------------|
  that    umb  -  rella,      we      em  -   ployed  it,     by


G|------- ------- ------- -------|------- ------- ------- -------|
D|7-----------9-----------5---5--|7-----------7---7---7----------|
A|----------------7---7----------|-------------------------------|
E|-------------------------------|-------------------------------|
  Au   -  gust    she was     mine.

Bridge:
G|------- ------- ------- -------|------- ------- ------- -------|
D|5---5-------5---5---5-------5--|-------------------------------|
A|-------------------------------|----------------9--------------|
E|-------------------------------|7-----------7-------7-------7--|
  Eve  -  ry  mor  -  ning    I           would   see her     wai-


G|------- ------- ------- -------|------- ------- ------- -------|
D|-------------------------------|-------------------------------|
A|7---------------5-------5------|3-----------3---3-------3------|
E|-------------------------------|-------------------------------|
          ting   at  the     stop,       some -  times   she'd


G|------- ------- ------- -------|------- ------- ------- -------|
D|-------------------------------|-------------------------------|
A|3------------------------------|----------------------------5--|
E|--------5-------5-------5------|7---------------7---7---7------|
  shop,   and     she would   show        me      what she    bought.


G|------- ------- ------- -------|------- ------- ------- -------|
D|-------------------------------|-------------------------------|
A|7-------7-------5-------5------|-------------------------------|
E|-------------------------------|8-------8-------7-------7------|
 


G|------- ------- ------- -------|------- ------- ------- -------|
D|5-----------5---5---5-------5--|-------------------------------|
A|-------------------------------|------------------------9------|
E|-------------------------------|7-----------7---7---7-------7--|
  All     the peo  -  ple     stare       as      if  we      were


G|------- ------- ------- -------|------- ------- ------- -------|
D|-------------------------------|-------------------------------|
A|7---------------5-------5------|-------------------------------|
E|-------------------------------|8-------8-------8-------8------|
          both    quite in -  sane,       some    day     my  name


G|------- ------- ------- -------|------- ------- ------- -------|
D|-------------------------------|-------------------------------|
A|-------------------------------|-------------------------------|
E|8-------8-------8-------8------|7-------7-------7-------7------|
          and     hers are    going       to      be  the     same.


G|------- ------- ------- -------|------- ------- ------- -------|
D|-------------------------------|------------9-----------5---6--|
A|7-----------7-----------5---6--|7-------------------7----------|
E|--------------------7----------|-------------------------------|
 

Verse:
G|------- ------- ------- -------|------- ----9-- ------- -------|
D|7-----------9-----------5---6--|7-----------------------5---6--|
A|--------------------7----------|--------------------7----------|
E|-------------------------------|-------------------------------|
  That's  the way     the     whole   thing   star -  ted,


G|------- ------- ------- -------|------- ----9-- ------- -------|
D|7-----------9-----------5---6--|7-----------------------5---6--|
A|----------------7---7----------|--------------------7----------|
E|-------------------------------|-------------------------------|
  silly       but     it's    true.                           I'm


G|------- ------- ------- -------|------- ----9-- ------- -------|
D|7-----------9-----------5---6--|7-----------------------5---6--|
A|--------------------7----------|--------------------7----------|
E|-------------------------------|-------------------------------|
  thin -  king of     a       sweet   ro  -   mance       be-


G|------- ------- ------- -------|------- ------- ------- -------|
D|7-----------9-----------5---6--|7-----------7---7-------5------|
A|--------------------7----------|-------------------------------|
E|-------------------------------|-------------------------------|
  ginning     in      the     queue.


G|------- ------- ------- -------|------- ------- ------- -------|
D|----------------5--------------|-------------------------------|
A|3-----------3------------------|7-----------7---7-------7------|
E|-------------------------------|-------------------------------|
  Came    the Sun,    the     ice     was     mel     ting,


G|------- ------- ------- -------|------- ------- ------- -------|
D|-------------------------------|-------------------------------|
A|5-----------5---5-------5------|7-----------7---7---7---7------|
E|-------------------------------|-------------------------------|
  no      more    shelte  -  ring now.


G|------- ------- ------- -------|------- ----9-- ------- -------|
D|7-----------9---------------5--|7-----------------------5---6--|
A|--------------------7----------|--------------------7----------|
E|-------------------------------|-------------------------------|
  Nice    to  think   that    that    umb  -  rel  -  la


G|------- ----9-- ------- -------|------- ------- ------- -------|
D|7-----------------------5---6--|7-----------9-----------5---6--|
A|--------------------7----------|--------------------7----------|
E|-------------------------------|-------------------------------|
  led     me      to  a       vow.

Break (solo):
G|------- ------- ------- -------|------- ------- ------- -------|
D|7---------------9--------------|7---------------9--------------|
A|------------------------7------|------------------------7------|
E|-------------------------------|-------------------------------|
 


G|------- ------- ------- -------|------- ------- ------- -------|
D|7---------------9--------------|7---------------9--------------|
A|------------------------7------|------------------------7------|
E|-------------------------------|-------------------------------|
 


G|------- ------- ------- -------|------- ------- 9------ -------|
D|7---------------9--------------|7------------------------------|
A|------------------------7------|------------------------7------|
E|-------------------------------|-------------------------------|
 


G|------- ------- 9------ -------|------- ------- ------- -------|
D|7------------------------------|7---------------7--------------|
A|------------------------7------|-------------------------------|
E|-------------------------------|-------------------------------|
 

Bridge:
G|------- ------- ------- -------|------- ------- ------- -------|
D|5-----------5---5-------5------|-------------------------------|
A|-------------------------------|-------------------------------|
E|-------------------------------|7-----------7---7-------7------|
  Eve  -  ry  mor  -  ning    I           would   see her     wai-


G|------- ------- ------- -------|------- ------- ------- -------|
D|-------------------------------|-------------------------------|
A|7-------7-------5-------5------|3-------3-------3-------3------|
E|-------------------------------|-------------------------------|
          ting    at  the     stop,       some -  times   she'd


G|------- ------- ------- -------|------- ------- ------- -------|
D|-------------------------------|-------------------------------|
A|3-------3-------3-------3------|2-------2-------2-------2---/--|
E|-------------------------------|-------------------------------|
  shop,   and     she would   show        me      what she    bought.


G|------- ------- ------- -------|------- ------- ------- -------|
D|-------------------------------|-------------------------------|
A|7-------7-------5-------5------|-------------------------------|
E|-------------------------------|8-------8-------7-------7------|
 


G|------- ------- ------- -------|------- ------- ------- -------|
D|5-----------5---5---5----------|-------------------------------|
A|-------------------------------|-------------------------------|
E|-------------------------------|7-----------7---7-----------7--|
  All     the peo  -  ple     stare       as      if  we      were


G|------- ------- ------- -------|------- ------- ------- -------|
D|-------------------------------|-------------------------------|
A|7-------7-------5-------5------|3-------3-------3-------3------|
E|-------------------------------|-------------------------------|
          both    quite in -  sane,       some    day     my  name


G|------- ------- ------- -------|------- ------- ------- -------|
D|-------------------------------|-------------------------------|
A|3-------3-------3-------3------|2-------2-------2-------2---/--|
E|-------------------------------|-------------------------------|
          and     hers are    going       to      be  the     same.


G|------- ------- ------- -------|------- ----9-- ------- -------|
D|------------9------------------|------------------------5---6--|
A|7-----------------------5---6--|7-------------------7----------|
E|--------------------7----------|-------------------------------|
 

Verse:
G|------- ------- ------- -------|------- ----9-- ------- -------|
D|7-----------9-----------5---6--|7-----------------------5---6--|
A|--------------------7----------|--------------------7----------|
E|-------------------------------|-------------------------------|
  Bus     stop,   wet day,    she's   there,  I       say:


G|------- ------- ------- -------|------- ----9-- ------- -------|
D|7-----------9-----------5---6--|7-----------------------5---6--|
A|----------------7---7----------|--------------------7----------|
E|-------------------------------|-------------------------------|
  Please  share   my  umb  -  rel    -    la.


G|------- ------- ------- -------|------- ----9-- ------- -------|
D|7-----------9-----------5---6--|7-----------------------5---6--|
A|--------------------7----------|--------------------7----------|
E|-------------------------------|-------------------------------|
  Bus     stop,   bus goes,   she     stays,  love    grows


G|------- ------- ------- -------|------- ------- ------- -------|
D|7-----------9-----------5---6--|7-----------7---7-------5------|
A|--------------------7----------|-------------------------------|
E|-------------------------------|-------------------------------|
  un  -   der     my  umb  -  rel    -    la


G|------- ------- ------- -------|------- ------- ------- -------|
D|----------------5-------5------|-------------------------------|
A|3-----------3------------------|7-----------7---7-------7------|
E|-------------------------------|-------------------------------|
  All     that    summer      we      en  -   joyed   it,


G|------- ------- ------- -------|------- ------- ------- -------|
D|-------------------------------|----------------------------6--|
A|5-----------5---5--------------|7---------------7---7---7------|
E|-------------------------------|-------------------------------|
  wind    and     rain    and         shine,                  And


G|------- ------- ------- -------|------- ----9-- ------- -------|
D|7-----------9-----------5---6--|7-----------------------5---6--|
A|--------------------7----------|--------------------7----------|
E|-------------------------------|-------------------------------|
  that    umb  -  rella,      we      em  -   ployed  it,     by


G|------- ------- ------- -------|------- ------- ------- -------|
D|7-----------------------5---5--|7-----------7---7--------------|
A|----------------7---7----------|------------------------7------|
E|-------------------------------|-------------------------------|
  Au   -  gust    she was     mine.

Outro:
G|------- ------- ------- -------|------- ------- ------- -------|
D|7------------------------------|7-----------9------------------|
A|----------------7---7----------|----------------7-------7------|
E|-------------------------------|-------------------------------|
 


G|------- ------- ------- -------|------- ------- ------- -------|
D|7-----------9------------------|7-----------9------------------|
A|----------------7-------7------|----------------7--------------|
E|-------------------------------|-------------------------------|
 


G|------- ------- ------- -------|------- ------- ------- -------|
D|7-----------9------------------|7-----------9------------------|
A|----------------7-------7------|----------------7-------7------|
E|-------------------------------|-------------------------------|
fade out...

Please e-mail me for any corrections, or write a comment.
comments
We did not receive enough feedback on this tab! Please rate:
print report bad tab
1 2 3 4 5
I want to post or [tab]
guest
You may want to rate the tab now too:
select rating
Please do not post tabs as comments. Select "correction" instead!