Oops, an error
Loading. Please wait.

He Aint Heavy Hes My Brother Tab

version 1
version 1

Solo

  • The existing intro tab is great. This version adds... Show more
79 views 1 this week
no commentswrite comment
1 2 3 4 5
3 more votes to show rating
add to favorites
launch autoscroll
font size
0
reset
how to read this tab
guitar tuner
Autoscroll
slow
fast
+/-
esc
set tempo
stop
Help us to improve Ultimate-Guitar.com Take our survey!
×
Author
Difficulty
novice
About this tab version
The existing intro tab is great. This version adds the solo that comes at about 3:22, overlays chords, and moves it down an octave for easier play on an acoustic. Was this info helpful? Yes No
Harmonica Intro:

     G    D           C        D7
e|-----------5--3--2--3-----------|
B|---3-------------------1--1-----|
G|--------------------------------|
D|--------------------------------|
A|--------------------------------|
E|--------------------------------|


Harmonica solo (abt 3:22 to 3:42)

     G    D           C        D          Em     F        Am7
e|-----------5--3--2--3------------0-------------------------|
B|---3-----*-------------1--1----3---3--1-0------1--**-------|
G|---------------------------------------------0-------0--2--|
D|-----------------------------------------------------------|
A|-----------------------------------------------------------|
E|-----------------------------------------------------------|

* can add another 3 there to track the lyric melody
** can add a 1p0 there to track the lyric melody
Suggest correction
Give kudos to tab author, rate the tab!
1 2 3 4 5
comments
print report bad tab
guest
You may want to rate the tab now too:
select rating
Wanna post a correction for this tab? Suggest correction