Oops, an error
Loading. Please wait.

Lady Please Bass Tab

16 views 1 this week
no commentswrite comment
1 2 3 4 5
3 more votes to show rating
add to favorites
launch autoscroll
font size
0
reset
guitar tuner
Autoscroll
slow
fast
+/-
esc
set tempo
stop
Help us to improve Ultimate-Guitar.com Take our survey!
×
Author
Difficulty
intermediate
Tabbed by: 6METAL6BASSIST6
E-mail: petergriffinav@gmail.com

Tuning: EADG

G|----------------------------------------------------------------|
D|--------12--------------12--------------12--------------12------|
A|10----------12--10----------12--10----------12--10----------12--|
E|----------10--------------10--------------10--------------10----|

0:06

G|----------------------------------------------------------------|
D|--------12--------------12--------------12--------------12------|
A|10----------12--10----------12--10----------12--10----------12--|
E|----------10--------------10--------------10--------------10----|

G|----------------------------------------------------------------|
D|--------9---------------9---------------10--10------------------|
A|7-----------9---7-----------9-----------------------------------|
E|--------------------------------8---------------8---------------|

G|----------------------------------------------------------------|
D|--------12--------------12--------------12--------------12------|
A|10----------12--10----------12--10----------12--10----------12--|
E|----------10--------------10--------------10--------------10----|

0:24

G|----------------------------------------------------------------|
D|--------12--------------12--------------12--------------12------|
A|10----------12--10----------12--10----------12--10----------12--|
E|----------10--------------10--------------10--------------10----|

G|----------------------------------------------------------------|
D|--------9---------------9---------------10--10------------------|
A|7-----------9---7-----------9-----------------------------------|
E|--------------------------------8---------------8---------------|

G|----------------------------------------------------------------|
D|--------12--------------12--------------12----------------------|
A|10----------12--10----------12--10----------12--10--10--9---7---|
E|----------10--------------10--------------10--------------------|

0:42

G|----------------------------------------------------------------|
D|--------------------------------5-----5---------5-----5---------|
A|5-----5---------5-----5-----------------5---------------5-------|
E|--------5---------------5---------------------------------------|

G|----------------------------------------------------------------|
D|3-----3-------------------------5-----5---------5---5---4-------|
A|--------3-------3-----3-----------------5-------------------7---|
E|------------------------3---------------------------------------|

G|----------------------------------------------------------------|
D|--------------------------------5-----5---------5-----5---------|
A|5-----5---------5-----5-----------------5---------------5-------|
E|--------5---------------5---------------------------------------|

G|----------------------------------------------------------------|
D|3-----3---------------------------------12--------------12------|
A|--------3-------3-----3-----5-/-10----------12--10----------12--|
E|------------------------3-----------------10--------------10----|

G|--------------------------------|
D|--------12--------------12------|
A|10----------12--10----------12--|
E|----------10--------------10----|

1:08

G|----------------------------------------------------------------|
D|--------12--------------12--------------12--------------12------|
A|10----------12--10----------12--10----------12--10----------12\-|
E|----------10--------------10--------------10--------------10----|

G|----------------------------------------------------------------|
D|--------9---------------9---------------10--10------------------|
A|7-----------9---7-----------------------------------------------|
E|----------------------------14\-8---------------8---------------|

G|----------------------------------------------------------------|
D|--------12--------------12--------------12--------------12------|
A|10----------12--10----------12--10----------12--10----------12--|
E|----------10--------------10--------------10--------------------|

1:25

G|----------------------------------------------------------------|
D|--------12--------------12--------------12--------------12------|
A|10----------12--10----------12--10----------12--10----------12--|
E|----------10------------------------------10--------------10----|

G|----------------------------------------------------------------|
D|--------9---------------9---------------10--10------------------|
A|7-----------9---7-----------9-\-3-------------------------------|
E|------------------------------------------------8---------------|

G|----------------------------------------------------------------|
D|--------12--------------12--------------12----------------------|
A|10----------12--10----------12--10----------12--10--10--9---7---|
E|----------10--------------10--------------10--------------------|

1:45

G|----------------------------------------------------------------|
D|--------------------------------5-----5---------5-----5---------|
A|5-----5---------5-----5-----------------5---------------5-------|
E|--------5---------------5---------------------------------------|

G|----------------------------------------------------------------|
D|3-----3-------------------------5-----5---------5---5---4-------|
A|--------3-------3-----3-----------------5-------------------7---|
E|------------------------3---------------------------------------|

G|----------------------------------------------------------------|
D|--------------------------------5-----5---------5-----5---------|
A|5-----5---------5-----5-----------------5---------------5-------|
E|--------5---------------5---------------------------------------|

G|----------------------------------------------------------------|
D|3-----3---------------------------------12--------------12------|
A|--------3-------3-----3-----5-/-10----------12--10----------12--|
E|------------------------3-----------------10--------------10----|

G|--------------------------------|
D|--------12--------------12------|
A|10----------12--10----------12--|
E|----------10--------------10----|

2:10

G|----------------------------------------------------------------|
D|--------12--------------12--------------12--------------12------|
A|10----------12--10----------12--10----------12--10----------12--|
E|----------10--------------10--------------10--------------10----|

G|----------------------------------------------------------------|
D|--------9---------------9---------------10--10------------------|
A|7-----------9---7-----------9-----------------------------------|
E|--------------------------------8---------------8---------------|

G|----------------------------------------------------------------|
D|--------12------------------------------12----------------------|
A|10----------12--8-------8---9---10----------12--8-------8---9---|
E|----------10------------------------------10--------------------|

G|----------------------------------------------------------------|
D|--------12------------------------------12----------------------|
A|10----------12--8-------8---9---10----------12--10------10------|
E|----------10------------------------------10--------10----------|
Suggest correction
Give kudos to tab author, rate the tab!
1 2 3 4 5
comments
print report bad tab
guest
You may want to rate the tab now too:
select rating
Wanna post a correction for this tab? Suggest correction