Oops, an error
Loading. Please wait.

Long Cool Women In A Black Dress ukulele

1,418 views 12 this week
no commentswrite comment
1 2 3 4 5
3 more votes to show rating
add to favorites
×
Save as Personal and add changes to this tab that will be seen only by you. Learn more ›
×
You can save this tab as Personal to edit and correct it or add notes. All changes will be seen only by you. Learn more »
launch autoscroll
font size
0
reset
transpose
0
reset
display chords
guitar tuner
edit
Autoscroll
slow
fast
+/-
esc
set tempo
stop
Author
Strumming
There is no strumming pattern for this song yet. and get +5 IQ
Please note that the intro is simplified from the original version so that anyone can 
play it. This is solely my interpretation of the song
Also, this is my first time ever doing a tab and chord sheet like this so leave comments 
on what to improve and what you like about it. Thanks!!

INTRO:

E ---------------------------------------|
B----------------------------------------|
D ---------------------------------------|
G--------5--4--2--0----------------------|
A --0--5--------------3------------------|
E --0-------------------3--2--3--5--3--2-|

Repeat the tab above 2x then play

E --------------------------------------------|
B --------------------------------------------|
D --------------------------------------------|
G --------0--------------0--------------------|
A --2--4----4--2--2--4-----4--2--2--4---------|
E --------------------------------------------|

CHORDS:

E                             G               A    E
Saturday night I was downtown Working for the FBI

                             G               A            E
Sittin' in a nest of bad men Whiskey bottles piling high

                                            G              A            E
Bootlegging boozer on the west side Full of people who are doing wrong

                                        G                A            E
Just about to call up the DA man When I heard this woman sing a song

A                                   B
A pair of 45's made me open my eyes My temperature started to rise

        A                            G                                E
She was a long cool woman in a black dress Just-a 5'9, beautiful, tall

A                                     G               E
With just one look I was a bad mess 'Cause that long cool woman had it all

Instrumental Interlude:
E -------------------------------------------|
B -------------------------------------------|
D -------------------------------------------|
G --------0-------------0--------------------|
A --2--4----4--2--2--4----4--2--2--4---------|
E -------------------------------------------|

E                                     G                A               E
I saw her heading to the table well a tall walking big black cat When

                                                    G               A
Charlie said I hope that you're able boy 'Cause I'm telling you she knows


               E
where it's at

                                  G             A               E
Then suddenly we heard the sirens And everybody started to run

                                         G                A             E
A-jumping out of doors and tables When I heard somebody shootin' a gun

                                           G         A                  E
Well the DA was pumping my left hand And a-she was a-holding my right

                                        G
Well I told her don't get scared 'Cause you're gonna be spared


A
And I've gotta be forgivin' if I wanna spend my living With a long cool

                 B            G                  E
woman in a black dress Just a 5'9 beautiful tall

A                                    B
Yeah, with just one look I was a bad mess'Cause that long cool woman had it

 E
all

E -------------------------------------------|
B -------------------------------------------|
D -------------------------------------------|
G --------0-------------0--------------------|
A --2--4----4--2--2--4----4--2--2--4---------|
E -------------------------------------------|

Had it all
Had it all

            
            
Suggest correction
Creating personal tab
Creating personal tab
You can edit any tab online and save it as your Personal.

You can edit, replace or remove any tab part or add personal notes – all changes will be seen only by you.

Personal tabs can be accessed anytime from any device, even offline.
Learn more »
Give kudos to tab author, rate the tab!
1 2 3 4 5
comments
print report bad tab
guest
You may want to rate the tab now too:
select rating
Wanna post a correction for this tab? Suggest correction