Oops, an error
Loading. Please wait.

I Dare David Bowie To Drive Drunk tab

3,129 views 1 this week
2 commentsread comments
1 2 3 4 5
x 5
add to favorites
×
Save as Personal and add changes to this tab that will be seen only by you. Learn more ›
×
You can save this tab as Personal to edit and correct it or add notes. All changes will be seen only by you. Learn more »
launch autoscroll
font size
0
reset
how to read this tab
guitar tuner
edit
Autoscroll
slow
fast
+/-
esc
set tempo
stop
I D.A.R.E. David Bowie To Drive Drunk
The Holly Springs Disaster\
By: Ian Wilson

Figure Out Muting And Timing Yourself..
Its Easy..

D -----------|
A -----------|
F -----------| until “im feeling you up”
C -0-3-5-12-0|
G -0-3-5-12-0|
C -0-3-5-12-0|

D ------------|
A ------------|
F ------------|
C -0-6-0-0-5-0|until “with motion sickness love”
G -0-6-0-0-5-0|
C -0-6-0-0-5-0|

D -----------------|
A -----------------|
F -----------------|
C -000-0000-0-0-0-0|
G -000-0000-0-0-0-0|
C -000-0000-0-0-0-0|

Random 0’s unitl “OH!”

D -----------------|
A -----------------|
F -----------------|
C -0-5-0-00-3-0-3-0| x4
G -0-5-0-00-3-0-3-0|
C -0-5-0-00-3-0-3-0|

D ---------------------|------------------------|
A -------- 9-----------|-------- 9--------------|
F --------12-----------|--------12--------------|
C -0-5-00----00-3-0-3-0|-0-5-00----00-3-0-3-0000| x2
G -0-5-00----00-3-0-3-0|-0-5-00----00-3-0-3-0000|
C -0-5-00----00-3-0-3-0|-0-5-00----00-3-0-3-0000|

D ------------|
A ------------|
F ------------|
C -0-6-00-5-0-| x8
G -0-6-00-5-0-|
C -0-6-00-5-0-|

D ---------------|
A ---------------|
F ---------------|
C -00-00-00-00-00|
G -00-00-00-00-00|
C -00-00-00-00-00|
D -----------------------------------|
A -----------------------------------|
F -----------------------------------|
C -0-0-0-0--0-0-0-0-00-00-00-00-00-00| x8
G -0-0-0-0--0-0-0-0-00-00-00-00-00-00|
C -0-0-0-0--0-0-0-0-00-00-00-00-00-00|

D ------------------------------------|
A ------------------------------------|
F ------------------------------------|
C -0-0-0-0--0-0-0-0--0-0-0-0--0-0-0-0-| 
G -0-0-0-0--0-0-0-0--0-0-0-0--0-0-0-0-|
C -0-0-0-0--0-0-0-0--0-0-0-0--0-0-0-0-|

There Ya Go..
Rhytm To the Holly Springs…
They Are Amazing And I Prolly got Some Shit Wrong..
im new 2 Thisss…
So Email Me Any Corrections!!
Pictures_of_the_invisible@hotmail.com
Or send em to my myspace email
www.myspace.com/cassiustheultracoolplanet

            
            
Suggest correction
Creating personal tab
Creating personal tab
You can edit any tab online and save it as your Personal.

You can edit, replace or remove any tab part or add personal notes – all changes will be seen only by you.

Personal tabs can be accessed anytime from any device, even offline.
Learn more »
comments
print report bad tab
2 comments total.
+1 reply
staplez 10 May 08, 2008 11:33 AM

I love it just one simply little thing, the neck slides at the begining but sweet song

0 reply
matx33 40 Jul 24, 2009 12:03 PM

There's a couple background notes on a second guitar you missed, but other than that, it's nearly dead on.

Only other thing is
D -----------------|
A -----------------|
F -----------------|
C -0-5-0-00-3-0-3-0| x4
G -0-5-0-00-3-0-3-0|
C -0-5-0-00-3-0-3-0|

D ---------------------|------------------------|
A -------- 9-----------|-------- 9--------------|
F --------12-----------|--------12--------------|
C -0-5-00----00-3-0-3-0|-0-5-00----00-3-0-3-0000| x2
G -0-5-00----00-3-0-3-0|-0-5-00----00-3-0-3-0000|
C -0-5-00----00-3-0-3-0|-0-5-00----00-3-0-3-0000|

The 5's should be on the 6th fret.
D -----------------|
A -----------------|
F -----------------|
C -0-6-0-00-3-0-3-0| x4
G -0-6-0-00-3-0-3-0|
C -0-6-0-00-3-0-3-0|

D ---------------------|------------------------|
A -------- 9-----------|-------- 9--------------|
F --------12-----------|--------12--------------|
C -0-6-00----00-3-0-3-0|-0-6-00----00-3-0-3-0000| x2
G -0-6-00----00-3-0-3-0|-0-6-00----00-3-0-3-0000|
C -0-6-00----00-3-0-3-0|-0-6-00----00-3-0-3-0000|

This is a great guide to learn the song though, well done.

guest
You may want to rate the tab now too:
select rating
Wanna post a correction for this tab? Suggest correction