Oops, an error
Loading. Please wait.

Astral Glamour bass

93 views 1 this week
no commentswrite comment
1 2 3 4 5
3 more votes to show rating
add to favorites
×
Save as Personal and add changes to this tab that will be seen only by you. Learn more ›
×
You can save this tab as Personal to edit and correct it or add notes. All changes will be seen only by you. Learn more »
launch autoscroll
font size
0
reset
guitar tuner
edit
Autoscroll
slow
fast
+/-
esc
set tempo
stop
The Homosexuals
"Astral Glamour"
The Homosexuals E.P. (1979)
The Homosexuals' LP (1984)
The Homosexuals' CD (2004)
Astral Glamour (2005)

http://www.myspace.com/thehomosexuals

Intro
Bass
|-------------------19~---------------------|
|-------------12/18(18)---------18\---------|
|-------------------------------------------|
|-------------------------------------------|

|-------------------------------------------|
|-------------------------------------------|
|--7-7-7---7-7-7---7-7-7---7-7-7-7--7--7--7-|
|-------------------------------------------|

1st verse
|----------------------------------------------------------|
|--------4-------------------------------------------6-6-6-|
|----------7-5-4--4--4--4------------5/9--9--9-9-9---------|
|--------------------------5--5--5--5----------------------|
                 "Global      pupil..."

|----------------------------------------------------------|
|-/9--7--7-7-7---9--7--------------------------------------|
|----------------------7--7-7-7-7-7-7-7-7-7-7-7-7-7--------|
|----------------------------------------------------------|
                  "Lamborghini..."

2nd verse
|----------------------------------------------------------|
|--------4-------------------------------------------6-6-6-|
|----------7-5-4--4--4--4------------5/9--9--9-9-9---------|
|--------------------------5--5--5--5----------------------|
                 "Astral      glamour       semen..."
                                          
|----------------7---------------7---9-7-11-9/13-11---14-13/16-14/18-16-|
|-/9--7--7-7-7------7--------7/9----------------------------------------|
|----------------------7--7-7-------------------------------------------|
|-----------------------------------------------------------------------|
                    "Condecending, gaily rendezvousing..."

|----------------------------------/14-12-----------|
|----------------------------------------14-12------|
|---------------------------------------------15-12-|
|---------------------5--5--5--5--5-----------------|

Bass drops out during "Rapid channel racing, turbine interfacing" x2

Bridge
|------------------------------------------------|
|------------------------------------------------|
|-0~----------0~----------0~----------0~---------|
|------------------------------------------------|
  "Say goodbye to telephone sex..."
|-------------9~---------/9--7----6h7p6----------|
|-7~-----------------------------------------9---|
|------------------------------------------------|
|------------------------------------------------|

|-------------------------------------------------------------|
|-7-7-6-7---7-6-7---7-6-7---7-6-7---7---7---7---7-------------|
|-------------------------------------9-------9---8--8--10-10-|
|-------------------------------------------------------------|
"virgins (virgins, virgins)..."
|------------------------------|
|-7--7--7-7-7-7---7-------9----|
|---------------8---8---10--10-|
|------------------------------|
                              "TO-
Finale/Coda
repeat both parts until the end

|--------------------------------------------------------||
|--------------------------------------------------------||
|-0--12-11-9--7-6-4---5-4-2---0--12-11-9--7-6-4---5-4-2--||
|--------------------------------------------------------||
Lead bass overdub part
|---------------14-------16------18---------14-------16--||
|------------/16--16/18----18--19----14--/16--16/18----18||
|--------------------------------------------------------||
|--------------------------------------------------------||
NIGHT!            The ladies are waiting..."

Last lead bass figure
|-/18-16------16-14---------------------------------------|
|----------------------16-14------------------------------|
|-----------------------------16---14\-----0~-----------0-|
|---------------------------------------------------------|

Cheers,
Bennyshambles78

            
            
Suggest correction
Creating personal tab
Creating personal tab
You can edit any tab online and save it as your Personal.

You can edit, replace or remove any tab part or add personal notes – all changes will be seen only by you.

Personal tabs can be accessed anytime from any device, even offline.
Learn more »
Give kudos to tab author, rate the tab!
1 2 3 4 5
comments
print report bad tab
guest
You may want to rate the tab now too:
select rating
Wanna post a correction for this tab? Suggest correction