Oops, an error
Loading. Please wait.

Reassemble tab

version 1
version 1

Whole song

67 views 1 this week
no commentswrite comment
1 2 3 4 5
3 more votes to show rating
add to favorites
×
Save as Personal and add changes to this tab that will be seen only by you. Learn more ›
×
You can save this tab as Personal to edit and correct it or add notes. All changes will be seen only by you. Learn more »
launch autoscroll
font size
0
reset
how to read this tab
guitar tuner
edit
Autoscroll
slow
fast
+/-
esc
set tempo
stop
Author
Difficulty
[tab]
Quick tab. You should be able to figure it out. 

Tuning DBDGBD
Verse
I knew something was wrong...so sorry
D-------0----0---------------------| x2
B-------7----7--------------(7)----|
G----------------------------------|
D----------------------------5-----|
B---5(s)7----7---------------5-----|
D---0---0----0---------------5-----|

Pre-Chorus
With you in my presence...
D-------0----0---------------------| x2
B-------7----7--------(7)-(7)------|
G----------------------0---0-------|
D---------------------0---0--------|
B---5(s)7----7-------0-------------|
D---0---0----0------4---5----------|

Chorus
I'm sorry but I can't...
D---------0------0-----------------| x2
B-------7------7-------------------|
G------0-0----0-0------------------|
D-----------(5)--------------------|
B---7-------(5)--------------------|
D---0--------5---------------------|

Riff
Other people are thinking...
D----------------------------------| 
B----------------------------------|
G----------------------------------|
D----------------------------7-----|
B---8-7-5-3-0---7----8-7-5-3-0---7-|
D---0-0-0-0-0---0----0-0-0-0-----0-|

The song pretty much revolves around this. Good luck!  
[/tab]



I knew something was wrong just in the way you said 'I'm so sorry'
The story read and I pleaded for you to continue

With you in my presence the pictures reassemble themselves
Return to the cracked frame on top the television (x2)

I'm sorry but I can't see past what other people are thinking (x2)
What other people are thinking, other people are thinking

Your voice cracked, almost begged for forgiveness
Before you even told me, told me

With you in my presence the pictures reassemble themselves
Return to the cracked frame on top the television (x2)

I'm sorry but I can't see past what other people are thinking (x2)
What other people are thinking, other people are thinking

With you in my presence the pictures reassemble themselves
Return to the cracked frame on top the television (x2)

Those that are tore to shreds in the moment you were in two dimensions (x2)
Just two dimensions

I'm filling in the empty spaces where you left your mark
You left your mark

            
            
Suggest correction
Creating personal tab
Creating personal tab
You can edit any tab online and save it as your Personal.

You can edit, replace or remove any tab part or add personal notes – all changes will be seen only by you.

Personal tabs can be accessed anytime from any device, even offline.
Learn more »
Give kudos to tab author, rate the tab!
1 2 3 4 5
comments
print report bad tab
guest
You may want to rate the tab now too:
select rating
Wanna post a correction for this tab? Suggest correction