Oops, an error
Loading. Please wait.

Drive tab

93 views 1 this week
no commentswrite comment
1 2 3 4 5
1 last vote to show rating
add to favorites
×
Save as Personal and add changes to this tab that will be seen only by you. Learn more ›
×
You can save this tab as Personal to edit and correct it or add notes. All changes will be seen only by you. Learn more »
launch autoscroll
font size
0
reset
how to read this tab
guitar tuner
edit
Autoscroll
slow
fast
+/-
esc
set tempo
stop
Author
Difficulty
By:Satori Stahl
Song:The Drive                    
Artist:The Honour Recital
Tunning:E,A,D,G,B,E

*-palm must
~-Let is ring



Intro
|-------------------------------------------------------|
|-------------------------------------------------------|
|-------------------------------------------------------|
|-------------------------------------------------------|x4
|-9-9---9-9----2-2--2-2~----------6-6---6-6----2-2--2-2~|
|-7-7---7-7----0-0--0-0~----------4-4---4-4----0-0--0-0~|

Guitar1   1:29               
|------------------------------------------------|    
|------------------------------------------------|
|------------------------------------------------|                   
|------------------------9-9-9-9-7-7-------------| x2       
|-6-6--6-6--6-6----------------------------------|          
|-4-4--4-4--4-4----------------------------------|    


-Guitar2  1:32
|---------------|
|---------------|
|---------------|
|---------------|
|---------------|
|-0-0--0-0--0-0-|
  * *  * *  * *

Chorus-1:42
|---------------------------------------------------------------------------|
|---------------------------------------------------------------------------|
|---------------------------------------------------------------------------|
|---------------------------------------------------------------------------|
|-2--4--9-9-9-9-9-9-9-9--2-2-2-2-2-2-2-2--6-6-6-6-6-6-6--0--4--2-2-2-2-2-2-2|
|-0--2--7-7-7-7-7-7-7-7--0-0-0-0-0-0-0-0--4-4-4-4-4-4-4--0--2--0-0-0-0-0-0-0|
                                                         *
2:10-guitar1                    guitar2
|-----------------|           |-------------------------|
|-----------------|           |-------------------------|
|------0----------|           |-------------------------|
|-----------------|           |-------------------------|
|---0----0--------|           |-2-2--2-2--2-2--2-2-2-2--|
|-0--------0-1----|           |-0-0--0-0--0-0--0-0-0-0--|

Guitar 1 and 2 reapeat
|-------------------|
|-------------------|
|-------------------|
|-------------------|
|-------------------|
|-0-0--0-0--0-0-----|
  * *  * *  * *
3:08
|-----------------------------------|
|-----------------------------------|
|-----------------------------------|
|-----------------------------------|x4
|-2-2--2-2--2-2----2222222----------|
|-0-0--0-0--0-0---------------------|

Guitar1- 3:21 
|-----------------------------------------------------------------------|
|-----------------------------------------------------------------------|
|-----------------------------------------------------------------------|
|-----------------------------------------------------------------------|    
|-2-4-9-9-9-9-9-9-9-9-7-7-7-7-7-7-7-7-6-6-6-6-6-6-6-0-4-2-2-2-2-2-2-2-2-|
|-0-2-7-7-7-7-7-7-7-7-5-5-5-5-5-5-5-5-4-4-4-4-4-4-4-0-2-0-0-0-0-0-0-0-0-|
                                                    *
Guitar2-tthis is played about 10 times
|-------------------|
|-7-4----9-8-4------|
|------4------------|
|-------------------|
|-------------------|
|-------------------|

                                                   
Guitar2
|---------------------------------------------|  
|-7-7-7-7-7-7-7-7--5-5-5-5-4-4-4-4------------|  
|---------------------------------------------|  
|---------------------------------------------|x2
|---------------------------------------------|  
|---------------------------------------------|  

guitar 2 cont
|------------------------------|
|5-5-5-5-4-4-4-4-7-7-7-7-5-4---|
|------------------------------|
|------------------------------|
|------------------------------|
|------------------------------|

The Chorus is Played again-3:49
                          
                                                                                

Any comments or questions?
cheese_dude777@yahoo.com



Suggest correction
Creating personal tab
Creating personal tab
You can edit any tab online and save it as your Personal.

You can edit, replace or remove any tab part or add personal notes – all changes will be seen only by you.

Personal tabs can be accessed anytime from any device, even offline.
Learn more »
Give kudos to tab author, rate the tab!
1 2 3 4 5
comments
print report bad tab
guest
You may want to rate the tab now too:
select rating
Wanna post a correction for this tab? Suggest correction