Oops, an error
Loading. Please wait.

Worst Case Scenario tab

version 2
version 2

Whole song

Interactive

1,423 views 1 this week
no commentswrite comment
1 2 3 4 5
2 more votes to show rating
add to favorites
×
Save as Personal and add changes to this tab that will be seen only by you. Learn more ›
×
You can save this tab as Personal to edit and correct it or add notes. All changes will be seen only by you. Learn more »
launch autoscroll
font size
0
reset
how to read this tab
guitar tuner
edit
Autoscroll
slow
fast
+/-
esc
set tempo
stop
Author
Difficulty
i've only tabbed one song before and im pretty sure this ones right 2. this is a great 
and it sonds great on guitar. hope you like it ;)

slide up     /
slide down   \
pull off     p
hammer on    h

Intro:

[Drums]         [bm]          [d]         [g]
e---------------2-2-2-2-------2-2-2-------3-3-3---5-3-3-------|
b---------------3-3-3-3-------3-3-3-------3-3-3---3-3-3-------|
g---------------4-4-4-4-------2-2-2-------4-4-4---4-4-4-------|
d---------------4-4-4-4-------0-0-0-------5-5-5---5-5-5-------|
a-------------------------------------------------------------|
e-------------------------------------------------------------|

      [bm]          [d]         [g]                       [Intro over]
e-----2-2-2-2-------2-2-2-------3-3-3---5-5-5-5-5-p3----------|
b-----3-3-3-3-------3-3-3-------3-3-3---3-3-3-3-3--3----------|
g-----4-4-4-4-------2-2-2-------4-4-4---4-4-4-4-4--4----------|
d-----4-4-4-4-------0-0-0-------5-5-5---5-5-5-5-5--5----------|
a-------------------------------------------------------------|
e-------------------------------------------------------------|


Verse 1

      [bm]          [d]         [g]                       [times 2]
e-----2-2-2-2-------2-2-2-------3-3-3---3-3-3-----------------|
b-----3-3-3-3-------3-3-3-------3-3-3---3-3-3-----------------|
g-----4-4-4-4-------2-2-2-------4-4-4---4-4-4-----------------|
d-----4-4-4-4-------0-0-0-------5-5-5---5-5-5-----------------|
a-------------------------------------------------------------|
e-------------------------------------------------------------|


Bridge 1

      [bm]          [d9]        [gflat5]
e-----2-2-2-2-------0-0-0-------3-3-3---3-3-3-----------------|
b-----3-3-3-3-------3-3-3-------0-0-0---0-0-0-----------------|
g-----4-4-4-4-------5-5-5-------4-4-4---4-4-4-----------------|
d-----4-4-4-4-------4-4-4-------0-0-0---0-0-0-----------------|
a-------------------5-5-5-------4-4-4---4-4-4-----------------|
e-------------------------------3-3-3---3-3-3-----------------|

      [bm]          [d]         [g]
e-----2-2-2-2-------2-2-2-------3-3-3---5-5-5-5-5-3-----------|
b-----3-3-3-3-------3-3-3-------3-3-3---3-3-3-3-3-3-----------|
g-----4-4-4-4-------2-2-2-------4-4-4---4-4-4-4-4-4-----------|
d-----4-4-4-4-------0-0-0-------5-5-5---5-5-5-5-5-5-----------|
a-------------------------------------------------------------|
e-------------------------------------------------------------|


Chorus

      [d]           [a]         [g]                       [times 2]
e-----5-5-5-5-------5-5-5-------3-3-3---3-3-3-----------------|
b-----7-7-7-7-------5-5-5-------3-3-3---3-3-3-----------------|
g-----7-7-7-7-------6-6-6-------4-4-4---4-4-4-----------------|
d-----7-7-7-7-------7-7-7-------5-5-5---5-5-5-----------------|
a-------------------------------------------------------------|
e-------------------------------------------------------------|

      [d]           [a]         [g]           [on 2nd chorus play twice]
e-----55555555------55555555----3333333333333333--------------|
b-----77777777------55555555----3333333333333333--------------|
g-----77777777------66666666----4444444444444444--------------|
d-----77777777------77777777----5555555555555555--------------|
a-------------------------------------------------------------|
e-------------------------------------------------------------|


Solo


e-------------------------------------------------------------|
b-------------------------------------------------------------|
g------------7p6-------------------------7p6------------------|
d-----9-9-99-----9-7--------------9-9-99-----9-7--------------|
a--------------------h9-7-9----------------------h9-7\5-------|
e-------------------------------------------------------------|


Verse 2:

as verse 1


Chorus 2:

as chorus 1


Outro:

Chords as chorus

enjoy  :)

by jon rose

            
            
Suggest correction
Creating personal tab
Creating personal tab
You can edit any tab online and save it as your Personal.

You can edit, replace or remove any tab part or add personal notes – all changes will be seen only by you.

Personal tabs can be accessed anytime from any device, even offline.
Learn more »
Give kudos to tab author, rate the tab!
1 2 3 4 5
comments
print report bad tab
guest
You may want to rate the tab now too:
select rating
Wanna post a correction for this tab? Suggest correction