Oops, an error
Loading. Please wait.

Count In Fives Tab

version 2
version 2

Whole song

Interactive

9,213 views 3 this week
no commentswrite comment
1 2 3 4 5
excellent!
x 6
add to favorites
launch autoscroll
font size
0
reset
how to read this tab
guitar tuner
Autoscroll
slow
fast
+/-
esc
set tempo
stop
Help us to improve Ultimate-Guitar.com Take our survey!
×
Count in Fives  (THE HORRORS)

Faris Rotter       (Vocals)
Joshua Von Grimm   (Guitar)
Spider Webb        (Organ)
Tomethy Furse      (Bass)
Coffin Joe         (Drums)


****************************************************************************
first its spider webb and joshua playing same riff (below)

e|---------------------------------------------------------------------------|
B|---------------------------------------------------------------------------|
G|---------------------------------------------------------------------------|
D|-------------------------------------------7-7-7--8-8-8--5-5-5--7-7-7------|
A|-----5-5-5--6-6-6--3-3-3--5-5-5------then--5-5-5--6-6-6--3-3-3--5-5-5------|
E|---------------------------------------------------------------------------|


****************************************************************************
Then its Josh

e|-----------------------------------------------------------------------------|
B|-----------------------------------------------------------------------------|
G|---14--12/10/12-10/12--14-12/10/12---14-12/10/12-10/12--17-15-14/12----------|
D|-----------------------------------------------------------------------------|
A|-----------------------------------------------------------------------------|
E|-----------------------------------------------------------------------------|


****************************************************************************
Then The Verse And bit of Chorus

e|---------------------------------------------------------------------------|
B|---------------------------------------------------------------------------|
G|---------------------------------------------------------------------------|
D|---3--3-8-5----------------------------------------------------------------|
A|---5--5/6/3----------------------------------------------------------------|
E|---------------------------------------------------------------------------|

****************************************************************************
( irrespective of the subject) chorus

e|---------------------------------------------------------------------------|
B|---------------------------------------------------------------------------|
G|---------------------------------------------------------------------------|
D|----7-7-7-7--8-8-8-8--5-5-5-5--7-7-7-7-------------------------------------|
A|----5-5-5-5--6-6-6-6--3-3-3-3--5-5-5-5-------------------------------------|
E|---------------------------------------------------------------------------|


e|---------------------------------------------------------------------------|
B|---------------------------------------------------------------------------|
G|---14--12/10/12--10/12----14-12/10-12---17-15/14-12------------------------|
D|---------------------------------------------------------------------------|
A|---------------------------------------------------------------------------|
E|---------------------------------------------------------------------------|
 ***************************************************************************
Suggest correction
What's this?
You can suggest a correction to this tab. Community and Mods will review your correction and vote to approve or reject it.
comments
print report bad tab
guest
You may want to rate the tab now too:
select rating
Please do not post tabs as comments. Select "correction" instead!