Oops, an error
Loading. Please wait.

Death At The Chapel Bass Tab

version 1
version 1

Whole song

Interactive

1,949 views 1 this week
1 commentread comment
1 2 3 4 5
please rate
add to favorites
launch autoscroll
font size
0
reset
guitar tuner
Autoscroll
slow
fast
+/-
esc
set tempo
stop
Help us to improve Ultimate-Guitar.com Take our survey!
×
Author
Difficulty
novice
I'm pretty sure the bass follows the organ in this song.

G|----------------|
D|-----2-2-0------|     x4
A|-3-3------------|
E|----------------|

G|----------------|
D|-3-3-3-2-0------|     x2
A|----------------|
E|----------------|


G|----------------|
D|-----2-2-0------|     x2
A|-3-3------------|
E|----------------|

It might go back to the second part here but i think it goes to this..

G|-------------------------|
D|-------------------------|
A|-------------------------|
E|-3--3--3-3-3-2--2--2-2-2-|


G|-----------|
D|-----2-2-0-|
A|-3-3-------|
E|-----------|

And theres all the parts for the song.
Suggest correction
What's this?
You can suggest a correction to this tab. Community and Mods will review your correction and vote to approve or reject it.
comments
We did not receive enough feedback on this tab! Please rate:
print report bad tab
1 2 3 4 5
1 comment total.
0 reply
Jordan_Horror 89 wrote on August 9 2007, 08:26 am

Humm my mistake, instead of;

G|----------------|
D|-----2-2-0------| x4
A|-3-3------------|
E|----------------|


Its;

G|----------------|
D|-----1-1-0------| x4
A|-3-3------------|
E|----------------|

guest
You may want to rate the tab now too:
select rating
Please do not post tabs as comments. Select "correction" instead!