Oops, an error
Loading. Please wait.

Death At The Chapel Tab

version 2
version 2

Intro

Whole song

Interactive

1,254 views 1 this week
no commentswrite comment
1 2 3 4 5
3 more votes to show rating
add to favorites
launch autoscroll
font size
0
reset
how to read this tab
guitar tuner
Autoscroll
slow
fast
+/-
esc
set tempo
stop
Help us to improve Ultimate-Guitar.com Take our survey!
×
Author
Difficulty
novice
 Death At The Chapel
Im not sure of this song
intro:

e||------------------||
B||------------------||
G||---4---4/7-7-7-7--||
D||---4---4/7-7-7-7--||
A||---2---2/5-5-5-5--||
E||------------------||

e||------------------------||
B||------------------------||
G||---7-7-7-6-5---7-7-7-6-4||
D||---7-7-7-6-5---7-7-7-6-4||
A||---5-5-5-4-3---5-5-5-4-2||
E||------------------------||  
Suggest correction
Give kudos to tab author, rate the tab!
1 2 3 4 5
comments
print report bad tab
guest
You may want to rate the tab now too:
select rating
Wanna post a correction for this tab? Suggest correction