Oops, an error
Loading. Please wait.

Endless Blue Bass Tab

4,586 views 3 this week
1 commentread comment
1 2 3 4 5
accurate
x 4
add to favorites
launch autoscroll
font size
0
reset
guitar tuner
Tab Pro tools
  • play this tab
  • loop segment
  • change instrument
  • show fretboard
  • metronome
×
Best way to learn
"Endless Blue"
Autoscroll
slow
fast
+/-
esc
set tempo
stop
Contributor
Difficulty
novice
The Horrors - Endless Blue

Tabbed just by listening to the song so may not be 100% accurate.


Intro (0:00-1:41)

G-----------------------------------------------------------|
D-----------------------------------------------------------|
A--8--8-8/1--1-1/3--3-3/6--6-6/8--8-8/1--1-1/3--3-3/6--6-6--|
E-----------------------------------------------------------|


G----------------------------------------------------------|
D----------------------------------------------------------|
A--3-(x16)-------------------------------------------------|
E----------------------------------------------------------|


G-----------------------------------------------------------|
D-----------------------------------------------------------|
A--8--8-8/1--1-1/3--3-3/6--6-6/8--8-10/1--1-1/3--3-3/6--6-6-|
E-----------------------------------------------------------|


G----------------------------------------------------------|
D----------------------------------------------------------|
A--3-(x16)-------------------------------------------------|
E----------------------------------------------------------|


G----------------------------------------------------------|
D----------------------------------------------------------|
A------3---3-----3----3-3-3-----3---3-----3----3-3-3-------| (x4)
E--1-----1---1-----1--------1-----1---1-----1--------------|


Verse (1:41-3:04)

G----------------------------------------------------------|
D---------------------2-0----------------------------------|
A-------3----3------3-----3--------------------------------| (x12)
E--1--1----1---1--1----------------------------------------|


G----------------------------------------------------------|
D----------------------------------------------------------|
A-33333333333333333333-------------------------------------|
E----------------------------------------------------------|


G----------------------------------------------------------|
D---------------------2-0----------------------------------|
A-------3----3------3-----3--------------------------------| (x8)
E--1--1----1---1--1----------------------------------------|

G----------------------------------------------------------|
D----------------------------------------------------------|
A-33333333333333333333-------------------------------------|
E----------------------------------------------------------|



Chorus- "At high tide..." (3:04-3:18)


G----------------------------------------------------------|
D----------------------------------------------------------|
A--1111-2222-4444-2222----000-0000-000-0000----------------| (x2)
E----------------------------------------------------------|


Verse- "Everyone seems so far away..." (3:18-3:50)


G----------------------------------------------------------|
D---------------------2-0----------------------------------|
A-------3----3------3-----3--------------------------------| (x8)
E--1--1----1---1--1----------------------------------------|



G----------------------------------------------------------|
D----------------------------------------------------------|
A-33333333333333333333-------------------------------------|
E----------------------------------------------------------|


Chorus- "At high tide..." (3:50-4:05)


G----------------------------------------------------------|
D----------------------------------------------------------|
A--1111-2222-4444-2222----000-0000-000-0000----------------| (x2)
E----------------------------------------------------------|


Guitar solo (4:05-4:33)

G----------------------------------------------------------|
D---------------------2-0----------------------------------|
A-------3----3------3-----3--------------------------------| (x8)
E--1--1----1---1--1----------------------------------------|



Chorus- "At high tide..." (4:33-4:47)

G----------------------------------------------------------|
D----------------------------------------------------------|
A--1111-2222-4444-2222----000-0000-000-0000----------------|
E----------------------------------------------------------|



G----------------------------------------------------------|
D----------------------------------------------------------|
A--1111-2222-4444-2222----777-77-57-57-7777----------------|
E----------------------------------------------------------|



Outro- "Endless... (4:47-5:15)

G----------------------------------------------------------|
D----------------------------------------------------------|
A-------3----3------3---333--------------------------------| (x4)
E--1--1----1---1--1----------------------------------------|
comments
print report bad tab
1 comment total.
0 reply
spkr3 wrote on March 2 2014, 11:10 am

it's good, but the intro is the wrong octave - play on the g string

I want to post or [tab]
guest
You may want to rate the tab now too:
select rating
Please do not post tabs as comments. Select "correction" instead!