Oops, an error
Loading. Please wait.

Excellent Choice Tab

1,994 views 1 this week
no commentswrite comment
1 2 3 4 5
please rate
add to favorites
launch autoscroll
font size
0
reset
how to read this tab
guitar tuner
Autoscroll
slow
fast
+/-
esc
set tempo
stop
Help us to improve Ultimate-Guitar.com Take our survey!
×
Author
EXCELLENT CHOICE

INTRO:
no organ

bass:
g|---------------------|
d|--77-10-10-77-10-10--|
a|---------------------| 4x
e|---------------------|

g|-------------------|
d|-------------------|
a|--777777777777777--|
e|-------------------|

guitar:
e|--------------------|
b|-1~-1~-0~-1~--------|
g|-2~-2~-0~-2~--------|
d|-2~-2~-2~-2~--------|
a|-0~-0~-2~-0~--------|
e|-------0~-----------|

e|----------------|
b|-1111111--------|
g|-2222222--------|
d|-2222222--------|
a|-0000000--------|
e|----------------|

VERSE:  

organ:
AA CC
AA CC
AA C DD

EE GG
EE GG
EE G AA

bass:
g|---------------------|
d|--77-10-10-77-10-10--|
a|---------------------| 4x
e|---------------------|

g|-------------------|
d|-------------------|
a|--777777777777777--|
e|-------------------|

guitar:
e|-----------------------------|
b|------11-----11------1-/-333-|
g|--22-----22-----22-----------|
d|-----------------------------| 2x
a|-----------------------------|
e|-----------------------------|

e|---------------------------------|
b|---------------------------------|
g|-----00----00----00-----2b2b-----|
d|--22----22----22----22-----------|
a|---------------------------------|
e|---------------------------------|


e|--------------------------|
b|------11-----11---1---333-|
g|--22-----22-----2---2-----|
d|--------------------------|
a|--------------------------|
e|--------------------------|

e|-----------------------------|
b|------11-----11------1-/-333-|
g|--22-----22-----22-----------|
d|-----------------------------| 2x
a|-----------------------------|
e|-----------------------------|

e|---------------------------------|
b|---------------------------------|
g|-----00----00----00-----2b2b-----|
d|--22----22----22----22-----------|
a|---------------------------------|
e|---------------------------------|

e|------------------3---/----5555-|
b|------11----11--3---3-/----5555-|
g|--22----22----------------------|
d|--------------------------------| 
a|--------------------------------|
e|--------------------------------|

CHORUS:

organ:
AA G#G# G GF

bass:
g|--------------------------|
d|--------------------------| 
a|--1212-1111-10-108--------|
e|--------------------------|

guitar(after organ goes down):
e|--5555--------------------|
b|--5555--------------------|
g|--------------------------|
d|--------------------------| 
a|--------------------------| 2x
e|--------------------------|

then,
e|--5---4--33-1---------|
b|----5-----------------|
g|----------------------|
d|----------------------| 2x
a|----------------------|
e|----------------------|

organ:
DD C#C# C CA#
AA G#G# G GF
GG F#F# F FD#

DD C#C# C CA#
AA G#G# G GF

bass:
g|--------------------------|
d|--1212-1111-10-108--------| 
a|--------------------------|
e|--------------------------|



e|-1010-99-8-86------5--4-33-1--|
b|-----------------5---5--------|
g|------------------------------|
d|------------------------------| 
a|------------------------------|
e|------------------------------|

then ???? some chords... 

VERSE:  

organ:
AA CC
AA CC
AA C DD

EE GG
EE GG
EE G AA

bass:
g|---------------------|
d|--77-10-10-77-10-10--|
a|---------------------| 4x
e|---------------------|

g|-------------------|
d|-------------------|
a|--777777777777777--|
e|-------------------|

guitar:
e|-----------------------------|
b|------11-----11------1-/-333-|
g|--22-----22-----22-----------|
d|-----------------------------| 2x
a|-----------------------------|
e|-----------------------------|

e|---------------------------------|
b|---------------------------------|
g|-----00----00----00-----2b2b-----|
d|--22----22----22----22-----------|
a|---------------------------------|
e|---------------------------------|

e|--------------------------|
b|------11-----11---1---333-|
g|--22-----22-----2---2-----|
d|--------------------------|
a|--------------------------|
e|--------------------------|

e|-----------------------------|
b|------11-----11------1-/-333-|
g|--22-----22-----22-----------|
d|-----------------------------| 2x
a|-----------------------------|
e|-----------------------------|

e|---------------------------------|
b|---------------------------------|
g|-----00----00----00-----2b2b-----|
d|--22----22----22----22-----------|
a|---------------------------------|
e|---------------------------------|

e|------------------3---/----5555-|
b|------11----11--3---3-/----5555-|
g|--22----22----------------------|
d|--------------------------------| 
a|--------------------------------|
e|--------------------------------|

CHORUS:

organ:
AA G#G# G GF

bass:
g|--------------------------|
d|--------------------------| 
a|--1212-1111-10-108--------|
e|--------------------------|

guitar(after organ goes down):
e|--5555--------------------|
b|--5555--------------------|
g|--------------------------|
d|--------------------------| 
a|--------------------------| 2x
e|--------------------------|

then,
e|--5---4--33-1---------|
b|----5-----------------|
g|----------------------|
d|----------------------| 2x
a|----------------------|
e|----------------------|

organ:
DD C#C# C CA#
AA G#G# G GF
GG F#F# F FD#

DD C#C# C CA#
AA G#G# G GF

bass:
g|--------------------------|
d|--1212-1111-10-108--------| 
a|--------------------------|
e|--------------------------|

e|-1010-99-8-86------5--4-33-1--|
b|-----------------5---5--------|
g|------------------------------|
d|------------------------------| 
a|------------------------------|
e|------------------------------|

then ???? some chords... 

VERSE:  

organ:
AA CC
AA CC
AA C DD

EE GG
EE GG
EE G AA




bass:
g|---------------------|
d|--77-10-10-77-10-10--|
a|---------------------| 4x
e|---------------------|

g|-------------------|
d|-------------------|
a|--777777777777777--|
e|-------------------|

guitar:
e|-----------------------------|
b|------11-----11------1-/-333-|
g|--22-----22-----22-----------|
d|-----------------------------| 2x
a|-----------------------------|
e|-----------------------------|

e|---------------------------------|
b|---------------------------------|
g|-----00----00----00-----2b2b-----|
d|--22----22----22----22-----------|
a|---------------------------------|
e|---------------------------------|

e|--------------------------|
b|------11-----11---1---333-|
g|--22-----22-----2---2-----|
d|--------------------------|
a|--------------------------|
e|--------------------------|

e|-----------------------------|
b|------11-----11------1-/-333-|
g|--22-----22-----22-----------|
d|-----------------------------| 2x
a|-----------------------------|
e|-----------------------------|

e|---------------------------------|
b|---------------------------------|
g|-----00----00----00-----2b2b-----|
d|--22----22----22----22-----------|
a|---------------------------------|
e|---------------------------------|

e|------------------3---/----5555-|
b|------11----11--3---3-/----5555-|
g|--22----22----------------------|
d|--------------------------------| 
a|--------------------------------|
e|--------------------------------|

CHORUS:

organ:
AA G#G# G GF

bass:
g|--------------------------|
d|--------------------------| 
a|--1212-1111-10-108--------|
e|--------------------------|




guitar(after organ goes down):
e|--5555--------------------|
b|--5555--------------------|
g|--------------------------|
d|--------------------------| 
a|--------------------------| 2x
e|--------------------------|

then,
e|--5---4--33-1---------|
b|----5-----------------|
g|----------------------|
d|----------------------| 2x
a|----------------------|
e|----------------------|

organ:
DD C#C# C CA#
AA G#G# G GF
GG F#F# F FD#

DD C#C# C CA#
AA G#G# G GF

bass:
g|--------------------------|
d|--1212-1111-10-108--------| 
a|--------------------------|
e|--------------------------|

e|-1010-99-8-86------5--4-33-1--|
b|-----------------5---5--------|
g|------------------------------|
d|------------------------------| 
a|------------------------------|
e|------------------------------|

then ???? some chords... 


x
Suggest correction
Give kudos to tab author, rate the tab!
1 2 3 4 5
comments
print report bad tab
guest
You may want to rate the tab now too:
select rating
Wanna post a correction for this tab? Suggest correction